Pennywise - Homesick Chords & Tabs

 

Homesick Chords & Tabs

Pennywise Chords & Tabs

Version: 2 Type: Bass Tab 0 ratings
1 star 2 stars 3 stars 4 stars 5 stars
comments

Homesick Bass Tab

Song:Homesick
Band:Pennywise
Album:Unknown Road
tabbed by:Dave Parisi

                                        Intro

G:----------------------------------------------
D:----------------------------------------------
A:----------------------------------------------
E: 3------3-------------------------------------

                                     VERSE

G:---------------------------------------------------------------
D:---------------------------------------------------------------
A:---------------5--3-3-3-3-3-3-3-3----------------5-3-3-3-3-5-5-3-5
E:-3-3-3-3-3-3-----------------------3-3-3-3-3-3--



                             Chorus
[ Tab from: http://www.guitartabs.cc/tabs/p/pennywise/homesick_btab_ver_2.html ]
G:-----------------------------------------------------
D:--------------3------------------3-------------------
A:----6-3----6---5---6---3-5--6------------------------
E:3-6-----3--------3---6-----3-------333333-1--333333-1--333333--1-3--3

                                        Mid Verse Lick

G:-12-10-----10--------------------------------------------------
D:----------12-----12-10-12-10-13--------------------------------
A:-----------------------------------------10-------------10-----
E:---------------------------------------------13----------------

Play the intro first, (remember to hold the first note, then play the 2'nd)
then the verse untill the first change, then the chorous, then it will go
into
a version of the verse but it will be 1/2 as fast as you would usually play
it, during the middle of the 1/2time verse the guitarrist goes off into a
solo, around this time, is when the Mid verse lick comes in. It is
extremely
fast, but kicks major ass. Listen, you'll hear it. After the 1/2time verse,
there is one more regular verse, then another chorous, then it's over.

Comments