Pennywise - Greed Chords & Tabs

 

Greed Chords & Tabs

Pennywise Chords & Tabs

Version: 2 Type: Tab 0 ratings
1 star 2 stars 3 stars 4 stars 5 stars
comments

Greed Tab

GREED - Pennywise


By:tonytaylor@home.com

Intro(palm mute very quiet)
e|------ -------------------------------------------------------------|
B|--------------------------------------------------------------------|
G|------------------------------6666-8888-----------------------------|
D|-33333333--66666666--88888888-6666-8888-----------------------------|
A|-33333333--66666666--88888888-4444-6666-----------------------------|
E|-11111111--44444444--66666666---------------------------------------|

2nd time(loud)
e|--------------------------------------------------------------------|
B|--------------------------------------------------------------------|
G|-6666-8888---10----8--7--6--8---10--8--7---6666-8888----------------|
D|-6666-8888---------------------------------6666-8888----------------|
A|-4444-6666----8----6--5--4--6----8--6--5---4444-6666----------------|
E|--------------------------------------------------------------------|

Lead octave part(use intro rhythm part with it)
e|--------------------------------------------------------------------|
B|--------------------------------------------------------------------|
G|-10-10\-13-13-repeat couple of times--1313131313--10---8------------|
D|--------------------------------------------------------------------|
A|--8--8\-11-11-------------------------1111111111---8---6------------|
E|--------------------------------------------------------------------|
[ Tab from: http://www.guitartabs.cc/tabs/p/pennywise/greed_tab_ver_2.html ]
Use fast palm mute(get rhythm from cd)
e|--------------------------------------------------------------------|
B|--------------------------------------------------------------------|
G|--------------------------6--8--------------------------------------|
D|-3---------------3--6--8--6--8--------------------------------------|
A|-3---------------3--6--8--4--6--------------------------------------|
E|-1-*pick-scrape--1--4--6--------------------------------------------|

Palm mute fast on f chord
e|--------------------------------------------------------------------|
B|--------------------------------------------------------------------|
G|-555555--66666------------------------------------------------------|
D|-555555--66666---33333----------------------------------------------|
A|-333333--44444---33333----------------------------------------------|
E|-----------------11111----------------------------------------------|

Chorus                
e|--------------------------------------------------------------------|
B|--------------------------------------------------------------------|
G|-1010101010-8--------------4th-time-1010101010-8-6666---------------|
D|-1010101010-8--66666-88888----------1010101010-8-6666-888-666-------|
A|--8-8-8-8-8-6--66666-88888-----------8-8-8-8-8-6-4444-888-666-------|
E|---------------44444-66666----------------------------666-444-------|

e|--------------------------------------------------------------------|
B|--------------------------------------------------------------------|
G|--------------------------------------------------------------------|
D|-333--888-666--333--888-6-6---3-------------------------------------|
A|-333--888-666--333--888-6-6---3-------------------------------------|
E|-111--666-444--111--666-4-4---1-------------------------------------|
Comments