Pennywise - God Save The Usa Chords & Tabs

 

God Save The Usa Chords & Tabs

Pennywise Chords & Tabs

Version: 1 Type: Bass Tab 0 ratings
1 star 2 stars 3 stars 4 stars 5 stars
comments

God Save The Usa Bass Tab

   
Song:God save the USA
Artist:Pennywise
Tabbed by:Dré

Intro
G|---------------------
D|---------------------
A|10---------------10--
E|---------------------

G|--------------------------------------
D|--------------------------------------
A|----1---3-----6---8-----6-6-1-1-3-1-3-
E|3-3---1---3-3---6---3-3---------------
                   x2

Riff 1
G|----------------
D|----------------
A|-----1010101010-
E|3333------------

Verse
G|----------------------------------------------
D|----------------------------------------------
A|-----------111111111-666666666-3333333333-6-8-
E|3333333333------------------------------------

G|--------------------------------------
D|--------------------------------------
A|-----------111111111-666666666-88-6-8-
E|3333333333----------------------------
[ Tab from: http://www.guitartabs.cc/tabs/p/pennywise/god_save_the_usa_btab.html ]
Pre-chorus
G|--------------------------------
D|--------------------------------
A|---------1-11-111-3-33-333-6--8-
E|3-33-333------------------------
                 x2

Chorus
G|----------------------------
D|----------------------------
A|-------666666-111111-888888-
E|333333----------------------

G|----------------------------
D|----------------------------
A|-------666666-111111--------
E|333333---------------111111-
              x2

Bridge
G|00000000-33333333-55555555-88888888-1010101010101010-
D|-----------------------------------------------------
A|-----------------------------------------------------
E|-----------------------------------------------------
                           x2

Outro
G|----------------------
D|----------------------
A|-----10-10-10-10-8-10-
E|3333------------------

Order

Intro
Riff 1
Verse
Pre-chorus
Riff 1
chorus
Pre-chorus
Riff 1
Verse
Pre-chorus
Riff 1
Chorus
Pre-verse x2
Bridge
Pre-chorus
Riff 1
Chorus
Pre-chorus x2
Outro
Comments