Pennywise - Get A Life Chords & Tabs

 

Get A Life Chords & Tabs

Pennywise Chords & Tabs

Version: 2 Type: Bass Tab 0 ratings
1 star 2 stars 3 stars 4 stars 5 stars
comments

Get A Life Bass Tab

   
PENNYWISE
"Get a Life" 
_Full Circle_
Bass Tab
Brian Hanrahan 

This is the complete tab.  I give all credit for the Solo section to 
Paul Celi. I basically just copied that part directly from his tabs.

PLAY IT FAST!!!!!!!!!!

Intro
G|-------|
D|-------|
A|-5-3-2-|
E|-------|

One
G|----------------------------|
D|----------------------------|
A|-7----5-7-3---5-7-----5-3-2-|
E|--3-5-------5-----3-5-------|

Two
G|-------------------------------------9-7-------------|
D|-----------5-----------------------5-----9-7-5-------|
A|-7-5-7-5-7---7-5-7-5-7---7-5-7-5-7-------------7-5---|
E|-----------------------7---------------------------5-|

Verse           
G|-------------|---------------|------------|---------| 
D|-------------|-----5---------|------------|---------| 
A|-7-5-7-7-----|-7-5---7-5-3-2-|7-5-7-7-----|-3-5-3-2-| 
E|---------3-5-|---------------|--------3-5-|---------|

Chorus
G|-------|                 G|-------|
D|-------|                 D|-------|
A|-7-3-2-| repeat x3, then A|-5-3-2-|
E|-------|		   E|-------|
[ Tab from: http://www.guitartabs.cc/tabs/p/pennywise/get_a_life_btab_ver_2.html ]
Solo (~~ means tremolo)
G|-------------|-------------|----------------5----7-|
D|-----------5-|-------------|-----------5-----------|
A|-7-5-7-5-7---|-7-5-7-5-7---|-7-5-7-5-7---3-----5---|
E|-------------|-----------7-|-----------------------|

G|-----------------------------------|----------------12-14~~--17~~-
D|-----------5--7~~--9~~--12~~--14~~-|-14-12-14-12-14---------------
A|-7-5-7-5-7-------------------------|------------------------------
E|-----------------------------------|------------------------------

G|-19~~--21~~-|
D|------------|
A|------------|
E|------------|

G|----9-------------5-----|
D|------------------------|  (x2)
A|--7---9-10-9-5--3---2-5-|
E|------------------------|

G|-------------------|
D|-------------------|  (x2)
A|--7-9-10-9-5-3-2-5-|
E|-------------------|

G|----------7-9-----|--9-7--------------|-------------------------|
D|------7-9---------|------9-7----------|------9-7-5--------------|
A|-7-10---------3-5-|----------10-7-3-5-|-7-10-------7--3-5-3-2-5-|
E|------------------|-------------------|-------------------------|

End
G|--9-7------------|
D|------9-7--------|
A|----------10-5-7-|
E|-----------------|

STRUCTURE:
Intro

One (1)
Two (1)

Verse (2)
One (2)
Chorus (1)
One (1)

Verse (2)
One (2)
Chorus (1)

Solo

Verse (1)
One (2)

End
Comments