Pennywise - Fun And Games Chords & Tabs

 

Fun And Games Chords & Tabs

Pennywise Chords & Tabs

Version: 1 Type: Bass Tab 0 ratings
1 star 2 stars 3 stars 4 stars 5 stars
comments

Fun And Games Bass Tab

Song:FUN & GAMES
Band:PENNYWISE
Album:PENNYWISE
Tabbed by:MOKE
G:---------------------------------------------------------------
D:---------------------------------------------------------------
A:-7-4-5---------7-4-5---------7-4-5---------5-5-5-5-5-5-5-5--
E:-------7- 7-7-7-------7-7-7-7-------7-7-7-7-------------------
(5)
G:-----------------------------------------------------------------------
D:-------------7-7-9-9-7-7-------------5-5-7-7-5-5-------------7-7-9-9-
A:-7-7-7-7-7-7-------------5-5-5-5-5-5-------------7-7-7-7-7-7---------
E:------------------------------------------------------------------------
G:-----------------------------------------------------------------------
D:---- ------------------------------7-7-9-9-7-7------------5-5-7-7-5-5-
A:-5-5-5-5-3-3-5-5-|-7-7-7-7-7-7-------------5-5-5-5-5-5--------------
E:-----------------------------------------------------------------------
[ Tab from: http://www.guitartabs.cc/tabs/p/pennywise/fun_and_games_btab.html ]
G:--< ----------------------------------------
D:----------- ---7-7-9-9-7-7----------------
A:-7-7-7-7-7-7-------------5-5-5-5-3------
E:-------------------------------------3-3-
G:---------------------------------------------------------------
D:---------------------------------------------------------------
A:-7-5-7-7-7-7-7-7-5-7-7-7-7-7-7-5-7-7-7-7-5-5-5-10--9-7-7---
E:--------- ------------------------------------------------------
(2)
G:---------------------------------------------------------------
D:---------------------------------------------------------------
A: -7-7-7-7--------4-4-4-4-------7-7-7-7-7-------5-5-5-5-5-5---
E:---------7-7 -7-7---------5-5-5-5---------7-7-7-7-------------
(3)

G:---------------------------------------------------------------
D:---------------------------------------------------------------
A:-7-7-7-7-5-5-5-5-7-7-7-7-5-5-5-5-3-3-5-5-|-7-7-7-7-7-7------
E:---------------------------------------------------------------

G:----- ---------------------------------------------------------------
D:-------------7-7-9-9-7-7--------------5-5-7-7-5-5-----------------
A:-7-7-7-7-7-7-------------5-5-5-5-5-5-------------5-5-5-5-3-3-5-5-
E:--------------------------------------------------------------------
G:---------------------------------------------------------------
D:---------------------------------------------------------------
A:-7-5-7-7-7-7-7-7-5-7-7-7-7-7-7-5-7-7-7-7-5-5-5-10--9-7-7---
E:---------------------------------------------------------------
(2)

G: --------------------------------------------------------------------------
D:--------------------------------------------------------------------------
A:-7-7-7-7-7-7-7-7-5-5-5-5-10-10--9--9-7-7-7-7-7-7-7-7-5-5-5-5-10-10--9
E:---------------------------------------------------------------------------
(3)
Comments