Pennywise - Full Circle Chords & Tabs

 

Full Circle Chords & Tabs

Pennywise Chords & Tabs

Version: 1 Type: Tab 0 ratings
1 star 2 stars 3 stars 4 stars 5 stars
comments

Full Circle Tab

   
Band: Pennywise
Album: Full Circle
TheMutts (halo2k@forerunners.org)

Note: I would like to thanks to authors for these tabs. NOTE: I (TheMutts)
do not take credit at all for these tabs. I simply compiled the most accurate
bass tabs and put this album together so you can find all the songs in here.

Tracks
1. Fight Till You Die
2. Date With Destiny
3. Get a Life
4. Society
5. Final Day
6. Broken
7. Running Out of Time
8. You'll Never Make It
9. Every Time
10. Nowhere Fast
11. What If I
12. Go Away
13. Did You Really?
14. Bro Hymn


////////////////////////////////////////////////////////////////////////////


1. Fight Till You Die

Intro: 1x
e|---------------------------------------------------------------------------|
B|---------------------------------------------------------------------------|
G|--------7-8-7-------8-1010101010--------7-8-7------------------------------|
D|--55555-7-8-7-88888-8-1010101010--55555-7-8-7-88888-33-8-7-----------------|
A|--55555-5-6-5-88888-6--8-8-8-8-8--55555-5-6-5-88888-33-8-7-----------------|
E|--33333-------66666---------------33333-------66666-11-6-5-----------------|
                                                 xxxx

e|---------------------------------------------------------------------------|
B|---------------------------------------------------------------------------|
G|--------7-8-7-------8-1010101010-------------------------------------------|
D|--55555-7-8-7-88888-8-1010101010--55555-8-10-8-5555555555------------------|
A|--55555-5-6-5-88888-6--8-8-8-8-8--55555-8-10-8-5555555555------------------|
E|--33333-------66666---------------33333-6--8-6-3333333333------------------|
                                                  xxxxxxxxx

Verse: 2x
e|---------------------------------------------------------------------------|
B|---------------------------------------------------------------------------|
G|--------7-8-7-------8-1010101010--------7-8-7------------------------------|
D|--55555-7-8-7-88888-8-1010101010--55555-7-8-7-88888-33-8-7-----------------|
A|--55555-5-6-5-88888-6--8-8-8-8-8--55555-5-6-5-88888-33-8-7-----------------|
E|--33333-------66666---------------33333-------66666-11-6-5-----------------|
                                                 xxxx

e|---------------------------------------------------------------------------|
B|---------------------------------------------------------------------------|
G|--------7-8-7-------8-1010101010-------------------------------------------|
D|--55555-7-8-7-88888-8-1010101010--55555-8-10-8-5555555555------------------|
A|--55555-5-6-5-88888-6--8-8-8-8-8--55555-8-10-8-5555555555------------------|
E|--33333-------66666---------------33333-6--8-6-3333333333------------------|
                                                  xxxxxxxxx
Pre-Chorus: 1x
e|---------------------------------------------------------------------------|
B|---------------------------------------------------------------------------|
G|--8888888888-5555555555----------------------------------------------------|
D|--8888888888-5555555555--5555-8-5555-8-5555-8-5555-------------------------|
A|--6666666666-3333333333--5555-8-5555-8-5555-8-5555-------------------------|
E|-------------------------3333-6-3333-6-3333-6-3333-------------------------|
         xxxxx      xxxxx
e|---------------------------------------------------------------------------|
B|---------------------------------------------------------------------------|
G|--8888888888-5555555555----------------------------------------------------|
D|--8888888888-5555555555--5555-8-5555-8-5555-8-5555-------------------------|
A|--6666666666-3333333333--5555-8-5555-8-5555-8-5555-------------------------|
E|-------------------------3333-6-3333-6-3333-6-3333-------------------------|
         xxxxx      xxxxx

e|---------------------------------------------------------------------------|
B|---------------------------------------------------------------------------|
G|--8888888888-5555----------------------------------------------------------|
D|--8888888888-5555----------------------------------------------------------|
A|--6666666666-3333----------------------------------------------------------|
E|---------------------------------------------------------------------------|
         xxxxx

Chorus: 1x
e|---------------------------------------------------------------------------|
B|---------------------------------------------------------------------------|
G|-1010101010-12121212121212121212-1010101010-12121212121212121212-----------|
D|-1010101010-12121212121212121212-1010101010-12121212121212121212-----------|
A|--8-8-8-8-8-10101010101010101010--8-8-8-8-8-10101010101010101010-----------|
E|---------------------------------------------------------------------------|

Verse: 2x

Pre-Chorus: 1x

Chorus: 1x

Bridge: 1x
e|---------------------------------------------------------------------------|
B|---------------------------------------------------------------------------|
G|-88888888-1010101010101010-1212121212121212--------------------------------|
D|-88888888-1010101010101010-1212121212121212--------------------------------|
A|-66666666--8-8-8-8-8-8-8-8-1010101010101010--------------------------------|
E|---------------------------------------------------------------------------|

e|---------------------------------------------------------------------------|
B|---------------------------------------------------------------------------|
G|-88888888-1010101010101010-1212121212121212--------------------------------|
D|-88888888-1010101010101010-1212121212121212--------------------------------|
A|-66666666--8-8-8-8-8-8-8-8-1010101010101010--------------------------------|
E|---------------------------------------------------------------------------|

e|---------------------------------------------------------------------------|
B|---------------------------------------------------------------------------|
G|-8888-10-8888-5555-10101010-1212121212121212-------------------------------|
D|-8888-10-8888-5555-10101010-1212121212121212-------------------------------|
A|-6666--8-6666-3333--8-8-8-8-1010101010101010-------------------------------|
E|---------------------------------------------------------------------------|

e|---------------------------------------------------------------------------|
B|---------------------------------------------------------------------------|
G|-8888-10-8888-5555-88-1010-1212121212121212--------------------------------|
D|-8888-10-8888-5555-88-1010-1212121212121212--------------------------------|
A|-6666--8-6666-3333-66--8-8-1010101010101010--------------------------------|
E|---------------------------------------------------------------------------|

Verse: 1x

Pre-Chorus: 1x

Chorus: 4x

Thatīs It! Itīs a very easy song but it has a lot of energy!!!

| /  slide up
| \  slide down
| h  hammer-on
| p  pull-off
| ~  vibrato
| +  harmonic
| x  Mute note


2. Date With Destiny

intro:
e-|------------------------------------------------------------------------|
B-|------------------------------------------------------------------------|
G-|-7-9-10-9-12-10-9-10-9-7-9-10-9-7-7--7-9-10-9-12-10-9-10-9-7-9-10-12-19-|
D-|-x-x--x-x-xx--x-x--x-x-x-x--x-x-x-x--x-x--x-x-xx--x-x--x-x-x-x--x-xx-xx-|
A-|-5-7--8-7-10--8-7--8-7-5-7--8-7-5-5--5-7--8-7-10--8-7--8-7-5-7--8-10-17-|
E-|------------------------------------------------------------------------|

verse:
e-|------------------------------------------|
B-|------------------------------------------|
G-|------------------------------------------|
D-|-7-7-7-7-10-10-10-10-5-5-5-5-7-7-10-12-10-|
A-|-5-5-5-5--8--8--8--8-3-3-3-3-5-5--8-10--8-|
E-|------------------------------------------|

chorus:
e-|------------------------------------------------------------------------|
B-|------------------------------------------------------------------------|
G-|------------------------------------------------------------------------|
D-|-7-5-10-10-10---5-7--7-5-10-10-10-----10-7--7-5-10-10-10---5-7--7-7-10--|
A-|-5-3--8--8--8-7-3-5--5-3--8--8--8-7-7--8-5--5-3--8--8--8-7-3-5--5-3--8--|
E-|--------------5-------------------5-5--------------------5--------------|

e-|----------------|-----------------------------------------------------|
B-|----------------|-----------------------------------------------------|
G-|----------------|-----------------------------------------------------|
D-|-10-10-----10-7-|-10-10-10-10-5-5-5-5---------------------------------|
A-|--8--8-7-7--8-5-|--8--8--8--8-3-3-3-3-5-5-3-3-8-8-7-7-5-5-3-3-8-8-7-7-|
E-|-------5-5------|-----------------------------------------------------|

e-|-------------------------------------------------------------------------|
B-|-------------------------------------------------------------------------|
G-|-------------------------------------------------------------------------|
D-|-10-10-10-10-5-5-5-5---------------------------------3-3-3-3-3-3-3-3-5-5-|
A-|--8--8--8--8-3-3-3-3-5-5-3-3-8-8-7-7-5-5-3-3-8-8-7-7-1-1-1-1-1-1-1-1-3-3-|
E-|-------------------------------------------------------------------------|

e-|-----------------------------------------------------------------------|
B-|-----------------------------------------------------------------------|
G-|-----------------------------------------------------------------------|
D-|-5-5-5-5-5-5-7-7-7-7-7-7-7-7-7-7-7-7-7-7-7-7-3-3-3-3-3-3-3-3-5--5-5--5-|
A-|-3-3-3-3-3-3-5-5-5-5-5-5-5-5-5-5-5-5-5-5-5-5-1-1-1-1-1-1-1-1-3--3-3--3-|
E-|-----------------------------------------------------------------------|

outro:
e-|-------------------------------------------------------------------------|
B-|-------------------------------------------------------------------------|
G-|-------------------------------------------------------------------------|
D-|-10-10-10-10-10-10-10-10-12-12-12-12-12-12-12-12-7-7-7-7-7-7-7-7-7-7-7-7-|
A-|--8--8--8--8--8--8--8--8-10-10-10-10-10-10-10-10-5-5-5-5-5-5-5-5-5-5-5-5-|
E-|-------------------------------------------------------------------------|

e-|-------------------------------------------------------------------------|
B-|-------------------------------------------------------------------------|
G-|-------------------------------------------------------------------------|
D-|-7-7-7-7-10-10-10-10-10-10-10-10-12-12-12-12-12-12-12-12-7-7-7-7-7-7-----|
A-|-5-5-5-5--8--8--8--8--8--8--8--8-10-10-10-10-10-10-10-10-5-5-5-5-5-5-etc-|
E-|-------------------------------------------------------------------------|

3. Get A Life

intro.and.chorus:
e-|-----------------------------------------|-------|
B-|-----------------------------------------|-------|
G-|-----------------------------------------|-------|
D-|-7-9-----7-9-5---7-9-----5-5-5-5-4-4-4-4-|-9--9--|
A-|-5-7-5-7-5-7-3-7-5-7-5-7-3-3-3-3-2-2-2-2-|-7--7--|
E-|-----3-5-------5-----3-5-----------------|-------|

verse:
e-|-----------------------------------------------------------------------|
B-|-----------------------------------------------------------------------|
G-|-----------------------------------------------------------------------|
D-|-9-9-7-9-9-----------------9-9-7-9-9-----------------9-9-7-9-9---------|
A-|-7-7-5-7-7-5-5-5-5-7-7-7-7-7-7-5-7-7-5-5-5-5-4-4-4-4-7-7-5-7-7-5-5-5-5-|
E-|-----------3-3-3-3-5-5-5-5-----------3-3-3-3-2-2-2-2-----------3-3-3-3-|

e-|-----------------------------------------|
B-|-----------------------------------------|
G-|-----------------------------------------|
D-|---------5-5-5-5-5-5-5-5-4-4-4-4-4-4-4-4-|
A-|-7-7-7-7-3-3-3-3-3-3-3-3-2-2-2-2-2-2-2-2-|
E-|-5-5-5-5---------------------------------|

second.part.of.chorus.
e-|-----------------------------------------------------------------|
B-|-----------------------------------------------------------------|
G-|-----------------------------------------------------------------|
D-|-9-9-9-9-9-9-9-9-5-5-5-5-4-4-4-4-9-9-9-9-9-9-9-9-5-5-5-5-4-4-4-4-|
A-|-7-7-7-7-7-7-7-7-3-3-3-3-2-2-2-2-7-7-7-7-7-7-7-7-3-3-3-3-2-2-2-2-|
E-|-----------------------------------------------------------------|

e-|-----------------------------------------------------------------|
B-|-----------------------------------------------------------------|
G-|-----------------------------------------------------------------|
D-|-9-9-9-9-9-9-9-9-5-5-5-5-4-4-4-4-7-7-7-7-7-7-7-7-5-5-5-5-4-4-4-4-|
A-|-7-7-7-7-7-7-7-7-3-3-3-3-2-2-2-2-5-5-5-5-5-5-5-5-3-3-3-3-2-2-2-2-|
E-|-----------------------------------------------------------------|

bridge:
e-|------------------------------------------------|
B-|------------------------------------------------|
G-|-----------------------------11-12-11-----------|
D-|-9--5-4-9------------------9--x-xx--x-7-5-4-7-7-|
A-|-7--3-2-7--12-12-12-14-14--7--9-10--9-5-3-2-5-5-|
E-|------------------------------------------------|

e-|-------------------------------------------------------------------------|
B-|-------------------------------------------------------------------------|
G-|-------------------------------------------------------------------------|
D-|-9-9-9-9-9-9-5-5-5-4-4-4-9-9-9-9-9-9-5-5-5-7-7-7-9-9-9-9-9-9-5-5-5-4-4-4-|
A-|-7-7-7-7-7-7-3-3-3-2-2-2-7-7-7-7-7-7-3-3-3-5-5-5-7-7-7-7-7-7-3-3-3-2-2-2-|
E-|-------------------------------------------------------------------------|

e-|---------------------------------|
B-|---------------------------------|
G-|---------------------------------|
D-|-7-7-7-7-7-7-7-7-5-5-5-5-4-4-4-4-|
A-|-5-5-5-5-5-5-5-5-3-3-3-3-2-2-2-2-|
E-|---------------------------------|

4. Society

intro:
e-|---------------|---------------------------------------------------------|
B-|---------------|---------------------------------------------------------|
G-|-12------------|---------------------------------------------------------|
D-|---12------12^-|-------9-9-9-------5-5-5-------9-9-9-12-12-12-------12---|
A-|-----10----10^-|-x-x-x-7-7-7-x-x-x-3-3-3-x-x-x-7-7-7-10-10-10-12-12-10---|
E-|-------10------|-x-x-x-------x-x-x-------x-x-x----------------10-10------|

e-|-------------------------------------------------------|
B-|-------------------------------------------------------|
G-|-------------------------------------------------------|
D-|-------9-9-9-------5-5-5-------9-9-9-12-12-12-------12-|
A-|-x-x-x-7-7-7-x-x-x-3-3-3-x-x-x-7-7-7-10-10-10-12-12-10-|
E-|-x-x-x-------x-x-x-------x-x-x----------------10-10----|

last.two.bars.of.intro...is.also.verse:
e-|-------------------------------------------------------------------------|
B-|-------------------------------------------------------------------------|
G-|-------------------------------------------------------------------------|
D-|---------9-9-9-9-5-5-5-5-----5-5---------9-9-9-9-12-12-12-12-------12----|
A-|-7-7-7-7-7-7-7-7-3-3-3-3-5-5-3-3-7-7-7-7-7-7-7-7-10-10-10-10-12-12-10----|
E-|-5-5-5-5-----------------3-3-----5-5-5-5---------------------10-10-------|
on.the.last.bar.of.intro.just.play.out.on.high.G.----^^^^
verse.is.palm.muted.for.2.bars.and.go.out.on.high.G.just.before.chorus.

Chorus:
e-|-------------------------------------------------------------------------|
B-|-------------------------------------------------------------------------|
G-|-------------------------------------------------------------------------|
D-|-----------------5-5-5-5-5-5-5-5-----------------7-7-7-7-7-7-7-7---------|
A-|-7-7-7-7-7-7-7-7-3-3-3-3-3-3-3-3-5-5-5-5-5-5-5-5-5-5-5-5-5-5-5-5-7-7-7-7-|
E-|-5-5-5-5-5-5-5-5-----------------3-3-3-3-3-3-3-3-----------------5-5-5-5-|

e-|---------------------------------------------------------|
B-|---------------------------------------------------------|
G-|---------------------------------------------------------|
D-|---------5-5-5-5-5-5-5-5-7-7-7-7-7-7-7-7-7-7-7-7-7-7-5-5-|
A-|-7-7-7-7-3-3-3-3-3-3-3-3-5-5-5-5-5-5-5-5-5-5-5-5-5-5-3-3-|
E-|-5-5-5-5-------------------------------------------------|


5. Final Day

Tuning: Standard

e|-------------------------------------------------------------------------|
B|-------------------------------------------------------------------------|
G|-------------------------------------------------------------------------|
D|-----------------1-1-1----------------------------1-1-1-1-66-55-3--------|
A|-------4-4-4-3-3------------------------4-4-4-3-3---------66-55-3--------|
E|-1-1-1-----------------4-4-4-3-3--1-1-1-------------------44-33-1--------|
 Opening Riff(pm...........................................)
e|-------------------------------------------------------------------------|
B|----------------------------------------------------------99-99----------|
G|----------------------------------------------------------88-88----------|
D|-----------------1-1-1------------------------------------66-66----------|
A|-------4-4-4-3-3------------------------4-4-4-3-3-6-6-6-6----------------|
E|-1-1-1-----------------4-4-4-3-3--1-1-1----------------------------------|
Continued(pm...............................................)
e|-------------------|----------------------------------|
B|-------------------|----------------------------------|
G|----6-5--8---------|-6-------6---10---6----------5----|
D|-3--6-5--8--6-5----|-6---3---6---10---6---3---6--5----|
A|-3--4-3--6--6-5----|-4---3---4---8----4---3---6--3----|
E|-1----------4-3----|-----1----------------1---4-------|
Main Riff Chords      Pre-chorus chords
e|-------------------------------------------------------------------------|
B|-------------------------------------------------------------------------|
G|------5-------5-------5-----6-5------------------------------------------|
D|-3--6-5--3--6-5--3--6-5--6--6-5--3333---3333---3333---6666---3333---3333-|
A|-3--6-3--3--6-3--3--6-3--6--4-3--3333---3333---3333---6666---3333---3333-|
E|-1--4----1--4----1--4----4-------1111---1111---1111---4444---1111---1111-|
Chorus
e|----------------|----------------------------------|
B|----------------|----------------------------------|
G|--3333----------|----------------------------------|
D|--3333---6666---|--3--------66-55--3---------------|
A|--1111---6666---|--3--------66-55--3--------1/8----|
E|---------4444---|--1--------44-33--1---------------|
Chorus continued    Breakdown (pm..)

That's it! Enjoy!

| /  slide up
| \  slide down
| h  hammer-on
| p  pull-off
| ~  vibrato
| +  harmonic
| x  Mute note


6. Broken
[ Tab from: http://www.guitartabs.cc/tabs/p/pennywise/full_circle_tab.html ]
Intro:
e|----------------------------------------------------------|
B|----------------------------------------------------------|
G|---------------------------9-8--4--4-4--9-8--6--6-6--9-8--|
D|-6--6-6-6-6-6-6-6-6-6-6-6--9-8--4--4-4--9-8--6--6-6--9-8--|
A|-6--6-6-6-6-6-6-6-6-6-6-6--7-6--2--2-2--7-6--4--4-4--7-6--|
E|-4--4-4-4-4-4-4-4-4-4-4-4---------------------------------|

e|----------------------------------------------------------|
B|----------------------------------------------------------|
G|---------------------------9-8--4--4-4--9-8--6--6-6--9-8--|
D|-6--6-6-6-6-6-6-6-6-6-6-6--9-8--4--4-4--9-8--6--6-6--9-8--|
A|-6--6-6-6-6-6-6-6-6-6-6-6--7-6--2--2-2--7-6--4--4-4--7-6--|
E|-4--4-4-4-4-4-4-4-4-4-4-4---------------------------------|

e|----------------------------------------------------------|
B|----------------------------------------------------------|
G|---------------------------9-8--4--4-4--9-8--6--6-6--9-8--|
D|-6--6-6-6-6-6-6-6-6-6-6-6--9-8--4--4-4--9-8--6--6-6--9-8--|
A|-6--6-6-6-6-6-6-6-6-6-6-6--7-6--2--2-2--7-6--4--4-4--7-6--|
E|-4--4-4-4-4-4-4-4-4-4-4-4---------------------------------|
                                               Bridge?:
e|----------------------------------------------------------|
B|----------------------------------------------------------|
G|---------------------------9-8--4--4-4--9-8---------------|
D|-6--6-6-6-6-6-6-6-6-6-6-6--9-8--4--4-4--9-8--6--8--9-9-9--|
A|-6--6-6-6-6-6-6-6-6-6-6-6--7-6--2--2-2--7-6--6--8--9-9-9--|
E|-4--4-4-4-4-4-4-4-4-4-4-4--------------------4--6--7-7-7--|

e|--------------------------------------------------------|
B|--------------------------------------------------------|
G|-------------------------------------9-9-9--------------|
D|-6-6-6-----6-6-6-----6-6-6-----6-6-6-9-9-9-----6-6-6----|
A|-6-6-6-----6-6-6-----6-6-6-----6-6-6-7-7-7-----6-6-6----|
E|-4-4-4-----4-4-4-----4-4-4-----4-4-4-----------4-4-4----|

e|----------------------------------|
B|----------------------------------|
G|----------------------------------|
D|-6-6-6-----6-6-6-----6--8--9-9-9--|
A|-6-6-6-----6-6-6-----6--8--9-9-9--|
E|-4-4-4-----4-4-4-----4--6--7-7-7--|

7. Running Out Of Time

intro.and.verse.
e-|-------------|-----------------------------------------------------------|
B-|-------------|-----------------------------------------------------------|
G-|-------------|-----------------------------------------------------------|
D-|-------------|---------7-7-7-7---------9-9-9-9---------7-7-7-7-----------|
A-|-5-5-5-4-4-4-|-9-9-9-9-5-5-5-5-7-7-7-7-7-7-7-7-9-9-9-9-5-5-5-5-5-5-5-5---|
E-|-3-3-3-2-2-2-|-7-7-7-7---------5-5-5-5---------7-7-7-7---------3-3-3-3---|

e-|-------------------------------------------------------------------------|
B-|-------------------------------------------------------------------------|
G-|-------------------------------------------------------------------------|
D-|-----------------7-7-7-7-12-12-12-12-9-9-9-9---------7-7-7-7-------------|
A-|-2-2-2-2-9-9-9-9-5-5-5-5-10-10-10-10-7-7-7-7-9-9-9-9-5-5-5-5-7-7-7-7-7-7-|
E-|-0-0-0-0-7-7-7-7-----------------------------7-7-7-7---------5-5-5-5-5-5-|

chorus
e-|----------------------------------------------|
B-|----------------------------------------------|
G-|----------------------------------------------|
D-|---------7-11-9-7-7-7-7-7-7-7-7---------9-9-7-|
A-|-9-9-9-9-5--9-7-5-5-5-5-5-5-5-5-7-7-7-7-7-7-5-|
E-|-7-7-7-7------------------------5-5-5-5-------|

chorus
e-|-----------------------------------------------------------------|
B-|-----------------------------------------------------------------|
G-|-----------------------------------------------------------------|
D-|-----------------7-7-7-7-----------------------------------------|
A-|-9-9-9-9-9-9-9-9-5-5-5-5-7-7-7-7-2-2-2-2-2-2-2-2-5-5-5-5-4-4-4-4-|
E-|-7-7-7-7-7-7-7-7---------5-5-5-5-0-0-0-0-0-0-0-0-3-3-3-3-2-2-2-2-|

chorus
e-|-------------------------------------------------------------|
B-|-------------------------------------------------------------|
G-|-------------------------------------------------------------|
D-|---------------------------------7-7-7-7-9-9-9-9-11-11-11-11-|
A-|-9-9-9-9-7-7-9-9-9-9-7-7-9-9-9-9-5-5-5-5-7-7-7-7--9--9--9--9-|
E-|-7-7-7-7-5-5-7-7-7-7-5-5-7-7-7-7-----------------------------|

bridge:
e-|-----------------------------------------------------------------|
B-|-----------------------------------------------------------------|
G-|-----------------------------------------------------------------|
D-|-4-4-4-4-4-4-4-4-------------------------------------------------|
A-|-2-2-2-2-2-2-2-2-7-7-7-7-7-7-7-7-5-5-5-5-5-5-5-5-4-4-4-4-7-7-7-7-|
E-|-----------------5-5-5-5-5-5-5-5-3-3-3-3-3-3-3-3-2-2-2-2-5-5-5-5-|


8. You'll Never Make It

intro/verse
e-|-----------------------------------------------------------------|
B-|-----------------------------------------------------------------|
G-|-----------------------------------------------------------------|
D-|---------------7---------------7---------------7---------9-9-9-9-|
A-|-9-9-9-9-9-9-9-5-5-5-5-5-7-7-7-5-9-9-9-9-9-9-9-5-5-5-5-5-7-7-7-7-|
E-|-7-7-7-7-7-7-7---3-3-3-3-5-5-5---7-7-7-7-7-7-7---3-3-3-3---------|

e-|-----------------------------------------------------------------|
B-|-----------------------------------------------------------------|
G-|-------------------------------------------------7-7-7-7-9-9-9-9-|
D-|---------------7---------------7-----------------x-x-x-x-x-x-x-x-|
A-|-9-9-9-9-9-9-9-5-5-5-5-5-7-7-7-5-9-9-9-9-9-9-9-9-5-5-5-5-7-7-7-7-|
E-|-7-7-7-7-7-7-7---3-3-3-3-5-5-5---7-7-7-7-7-7-7-7-----------------|

chorus
e-|-------------------------------------------------------------------------|
B-|-------------------------------------------------------------------------|
G-|-------------------------------------------------10-10-7-9-10------------|
D-|---------------------------------------7-------7--x--x-x-x--x------------|
A-|-5-5-5-5-5-5-5-5-7-7-7-7-7-7-7-7-9-9-9-5-9-9-9-5--8--8-5-7--8------------|
E-|-3-3-3-3-3-3-3-3-5-5-5-5-5-5-5-5-7-7-7---7-7-7---------------------------|

e-|-------------------------------------------------------------------------|
B-|-------------------------------------------------------------------------|
G-|-------------------------------------------------10-10-7-9-10------------|
D-|---------------------------------------7-------7--x--x-x-x--x------------|
A-|-5-5-5-5-5-5-5-5-7-7-7-7-7-7-7-7-9-9-9-5-9-9-9-5--8--8-5-7--8------------|
E-|-3-3-3-3-3-3-3-3-5-5-5-5-5-5-5-5-7-7-7---7-7-7---------------------------|

e-|------------------------------------|
B-|------------------------------------|
G-|------------------------------------|
D-|------------------------------------|
A-|-5-5-5-5-5-5-5-5-7--9-9-9-9-9-9-9-9-|
E-|-3-3-3-3-3-3-3-3-5--7-7-7-7-7-7-7-7-|

bridge
e-|------------------------------------------------------------------|
B-|------------------------------------------------------------------|
G-|------------------------------------------------------------------|
D-|-7-7-7-7-7-7-7-7---------------------------------------10---------|
A-|-5-5-5-5-5-5-5-5-5-5-5-5-5-5-5-5-9-9-9-9-9-9-9-9-9-9-9--8-9-9-9-9-|
E-|-----------------3-3-3-3-3-3-3-3-7-7-7-7-7-7-7-7-7-7-7----7-7-7-7-|

e-|-----------------------------------------------------------------|
B-|-----------------------------------------------------------------|
G-|-----------------------------------------------------------------|
D-|-7-7-7-7-7-7-7-7---------------------------------2-2-2-2-2-2-2-2-|
A-|-5-5-5-5-5-5-5-5-5-5-5-5-5-5-5-5-2-2-2-2-2-2-2-2-0-0-0-0-0-0-0-0-|
E-|-----------------3-3-3-3-3-3-3-3-0-0-0-0-0-0-0-0-----------------|

e-|-----------------------------------------------------------|
B-|-----------------------------------------------------------|
G-|-----------------------------------------------------------|
D-|-4-4-4-4-4-4-4-4-7-7-7-7-7-7-7-7-9-9-9-9-9-9-9-9-9-9-9-9-9-|
A-|-2-2-2-2-2-2-2-2-5-5-5-5-5-5-5-5-7-7-7-7-7-7-7-7-7-7-7-7-7-|
E-|-----------------------------------------------------------|

e-|---------------------------------|
B-|---------------------------------|
G-|---------------------------------|
D-|---------------------------------|
A-|-9-9-9-9-9-9-9-9-5-5-5-5-7-7-7-7-|
E-|-7-7-7-7-7-7-7-7-3-3-3-3-5-5-5-5-|


9. Everytime

Tuning: Standard

e|-------------------------------------------------------------|
B|-------------------------------------------------------------|
G|--5-------8--10---5-------8--10---5-------8--10--------10----|
D|--5----6--8--10---5----6--8--10---5----6--8--10---8----10----|
A|--3----6--6--8----3----6--6--8----3----6--6--8----8----8-----|
E|-------4---------------4---------------4----------6----------|
 Opening Chords (Guitar 1)
e|--------------------------------------------------------------------|
B|--8-88-88-88-9-8-6-8----8-88-88-88-9-8-6-8----8-88-88-88-9-8-6-8----|
G|--------------------------------------------------------------------|
D|--------------------------------------------------------------------|
A|--------------------------------------------------------------------|
E|--------------------------------------------------------------------|
 Opening Notes (Guitar 2)
e|---------------------------------------------------------|
B|---------------------------------------------------------|
G|--5-xxxxxxx-5-xxxxxx-5----5---8-------10---5---8---10----|
D|--5-xxxxxxx-5-xxxxxx-5----5---8---6---10---5---8---10----|
A|--3-xxxxxxx-3-xxxxxx-3----3---6---6---8----3---6---8-----|
E|----------------------------------4----------------------|
 Chords after chorus
e|-------------------------------------------------------|
B|-------------------------------------------------------|
G|--5------8--10---5-----8------5------8--10-------10----|
D|--5---6--8--10---5--6--8--8---5---6--8--10--8----10----|
A|--3---6--6--8----3--6--6--8---3---6--6--8---8----8-----|
E|------4-------------4-----6-------4---------6----------|
 Chords Behind Solo(Guitar 1)
e|---------------------------------------------8---------------------------|
B|----8-9-8-6~-4-4-6p4-3~-----8-9-8-6~-4~-3~---8-6b7r6b7r6---------8-6b7r6-|
G|--5-----------------------5------------------------------8~--5-8---------|
D|-------------------------------------------------------------------------|
A|-------------------------------------------------------------------------|
E|-------------------------------------------------------------------------|
 Solo (Guitar 2)
e|-----------------6p4p3-----------------6p4p3---------------------------|
B|-8p6p4-6p4-8p6p4-------8p6p4-6p4-8p6p4-------6b7r6b7r6b7r6--4~---------|
G|---------------------------------------------------------------3/5~----|
D|-----------------------------------------------------------------------|
A|-----------------------------------------------------------------------|
E|-----------------------------------------------------------------------|

This tab is dedicated to Carly. Thanks for the inspiration!

| /  slide up
| \  slide down
| h  hammer-on
| p  pull-off
| ~  vibrato
| +  harmonic
| x  Mute note



10. Nowhere Fast

e-|-----------------|
B-|-----------------|
G-|-----------------|
D-|---------2^---9^-|
A-|-2-2-2---2^---7^-|
E-|-0-0-0---0^------|


verse:
e-|------------------------------------------|
B-|------------------------------------------|
G-|------------------------------------------|
D-|-9-7-------5----------9-7-------5-7-9-9-9-|
A-|-7-5-7-7-7-3-5-2-2-2--7-5-7-7-7-3-5-7-7-7-|
E-|-----5-5-5---3-0-0-0------5-5-5-----------|

chorus:
e-|-------------------------|
B-|-------------------------|
G-|-------------------------|
D-|-----------------7---7---|
A-|-2-2-2-2-2-2-2-2-5-7-5-7-|
E-|-0-0-0-0-0-0-0-0---5---5-|

e-|-----------------------------------------------------------------|
B-|-----------------------------------------------------------------|
G-|-----------------------------------------------------------------|
D-|-5-5-----5-5-----7-7-----7-7-----5-5-----5-5-----7-7-----7-7-----|
A-|-3-3-5-5-3-3-5-5-5-5-7-7-5-5-7-7-3-3-5-5-3-3-5-5-5-5-7-7-5-5-7-7-|
E-|-----3-3-----3-3-----5-5-----5-5-----3-3-----3-3-----5-5-----5-5-|

bridge:
e-|------------------------------------------------------------------------|
B-|------------------------------------------------------------------------|
G-|------------------------------------------------------------------------|
D-|-7-7-7-7-7-7-7-7------------------9-9-9-9-9-7-9-9-9-9-9-7-7-7-7-7-7-7-7-|
A-|-5-5-5-5-5-5-5-5-7-7-7-7-7-7-7-7--7-7-7-7-7-5-7-7-7-7-7-5-5-5-5-5-5-5-5-|
E-|-----------------5-5-5-5-5-5-5-5----------------------------------------|

e-|-------------------------------------------------------------------------|
B-|-------------------------------------------------------------------------|
G-|-------------------------------------------------------------------------|
D-|---------------------------------------------7-7-7-7-7-7-7-7-------------|
A-|-7-7-7-7-7-7-7-7-2-2-2-2-2-2-5-2-2-2-2-2-2-5-5-5-5-5-5-5-5-5-7-7-7-7-7-7-|
E-|-5-5-5-5-5-5-5-5-0-0-0-0-0-0-3-0-0-0-0-0-0-3-----------------5-5-5-5-5-5-|

e-|--------------------------------------------------------------------------|
B-|--------------------------------------------------------------------------|
G-|--------------------------------------------------------------------------|
D-|-----9-9-9-9-9-7-9-9-9-9-9-7-7-7-7-7-7-7-7--------------------------------|
A-|-7-7-7-7-7-7-7-5-7-7-7-7-7-5-5-5-5-5-5-5-5-7-7-7-7-7-7-7-7-2-2-2-2-2-2-2--|
E-|-5-5---------------------------------------5-5-5-5-5-5-5-5-0-0-0-0-0-0-0--|



11. What If I

   INTRO & INTERLUDE
e-|-----------------------------------------------|-----------------|
B-|-----------------------------------------------|-----------------|
G-|-9-9-9-9-9-9-9-9-10-10-10-10-10-10-10-10--(x3)-|-9-10-9-10--12^--|
D-|-7-7-7-7-7-7-7-7--7--7--7--7--7--7--7--7-------|-7--7-7--7-------|
A-|-----------------------------------------------|-----------------|
E-|-----------------------------------------------|-----------------|

   "HEY, DIE" part as well as next part of INTRO                   (only played at end of intro)
e-|---------------------------------------------------------------------|-------------------|
B-|---------------------------------------------------------------------|-------------------|
G-|-----------555-77-5------------555-77-5------------555-77-5-99999999-|-------------------|
D-|----7----3-555-77-5-----7----3-555-77-5-----7----3-555-77-5-99999999-|-7--------7--------|
A-|-77-7-33-3-333-55-3--77-7-33-3-333-55-3--77-7-33-3-333-55-3-77777777-|-7---7777-7---7777-|
E-|-55-5-11-1-----------55-5-11-1-----------55-5-11-1-------------------|-5---5555-5---5555-|
    pm   pm             pm   pm             pm   pm                           pm..     pm..

   VERSE
e-|--------------------------------------------------------------------------------------------|
B-|--------------------------------------------------------------------------------------------|
G-|---------------------5---------7----7/9-7-5-4----------------------5---------7----7/9-7-5-4-|
D-|-7---------3---------5-5555555-7-77------------7---------3---------5-5555555-7-77-----------|
A-|-7-7777777-3-3333333-3-3333333-5-55-5/7-5-3-2--7-7777777-3-3333333-3-3333333-5-55-5/7-5-3-2-|
E-|-5-5555555-1-1111111---------------------------5-5555555-1-1111111--------------------------|
      pm.....   pm.....   pm.....   pm              pm.....   pm.....   pm.....   pm

   CHORUS
e-|----------------------------------------------------------------------------------|
B-|----------------------------------------------------------------------------------|
G-|------5555------7777-------5555-77777777-------5555------7777-------5555-77777777-|
D-|-7777-5555-3333-7777--7777-5555-77777777--7777-5555-3333-7777--7777-5555-77777777-|
A-|-7777-3333-3333-5555--7777-3333-55555555--7777-3333-3333-5555--7777-3333-55555555-|
E-|-5555------1111-------5555----------------5555------1111-------5555---------------|




12. Go Away

intro/chorus:
e-|-------------------------------------------------------------------------|
B-|-------------------------------------------------------------------------|
G-|------------------------------------------11-12--------------------------|
D-|-9-9-9-9-9-9-9-11-----------------9-9-9-9--x-xx---------7-7-7-7--9-9-9-9-|
A-|-7-7-7-7-7-7-7--9-5-5-5-5-5-5-5-5-7-7-7-7--9-10-5-5-5-5-5-5-5-5--7-7-7-7-|
E-|------------------3-3-3-3-3-3-3-3---------------3-3-3-3------------------|

e-|----------------------------------------------------|------|
B-|----------------------------------------------------|------|
G-|----------------------------------------------------|------|
D-|-9-9-9-11-----------------4-4-4-4-4-4-4-4-7-4-2-7-9-|-9--9-|
A-|-7-7-7--9-5-5-5-5-5-5-5-5-2-2-2-2-2-2-2-2-5-2-0-5-7-|-7--7-|
E-|----------3-3-3-3-3-3-3-3---------------------------|------|

verse:
e-|-----------------------------------------------------------------|
B-|-----------------------------------------------------------------|
G-|-----------------------------------------------------------------|
D-|-9-9-----5-5-7-7-9-9-----5-5-7-7-9-9-----5-5-7-7-4-4-4-4-7-4-2-4-|
A-|-7-7-5-7-3-3-5-5-7-7-5-7-3-3-5-5-7-7-5-7-3-3-5-5-2-2-2-2-5-2-0-2-|
E-|-----3-5-------------3-5-------------3-5-------------------------|



13. Did You Really?

VERSE:

e   ----------------------------------------------|
B   ----------------------------------------------|
G   ----------------------------------------------|
D   -------------------------------------999-7-9--|
A   -999-7-555-7-222-7-555-7---999-7-555-777-5-7--|
E   -777-5-333-5-000-5-333-5---777-5-333----------|

CHORUS:

e   ------------------------------|
B   ------------------------------|
G   ------------------------------|
D   -----7~---------------7-------|
A   -999-5~-555-777---999-5-5575--| Two times.
E   -777----333-555---777---3353--|

e   ----------------------------------------------------------------------|
B   ----------------------------------------------------------------------|
G   ----------------------------------------------------------------------|
D   ----------44444444---~-------4------------44444444--------------------|
A   -44444444-22222222--44444444-2---44444444-22222222-22222222-44444444--|
E   -22222222-----------22222222-----22222222----------00000000-22222222--|

BRIDGE:

e   -------------------------------|
B   -------------------------------|
G   -------------------------------|
D   ------7------------------------|
A   -9999-5-5555-7-2222-7-555-777--|
E   -7777---3333-5-0000-5-333-555--|




14. Bro Hymn

e-|-----------------------------------------|
B-|-----------------------------------------|
G-|-7--10---9---5----10---5---10---9---7----|
D-|-7--10---9---5----10---5---10---9---7----|
A-|-5---8---7---3-----8---3----8---7---5----|
E-|-----------------------------------------|

The end...
Comments