Pennywise - Fuck Authority Chords & Tabs

 

Fuck Authority Chords & Tabs

Pennywise Chords & Tabs

Version: 6 Type: Tab 0 ratings
1 star 2 stars 3 stars 4 stars 5 stars
comments

Fuck Authority Tab

   
Pennywise
Fuck Authority

Karl Gale
whosontop2nite@hotmail.com

I believe this is one byatch of a tab, the timings are a bit dodgy but im 99% certain
the notes are correct.
Play n enjoy


Intro

E|-----------------------------------------------------------------------------------------------------|
B|-----------------------------------------------------------------------------------------------------|
G|-----------------------------5-5-3-3---3-3-3---3-3-3---3-3-3-2-2-----------------------------5-5-----|
D|-5-5---5-5-5---5-5-5---5-5-5-5-5-3-3---3-3-3---3-3-3---3-3-3-2-2-3-3---3-3-3---3-3-3---3-3-3-5-5-----|
A|-5-5---5-5-5---5-5-5---5-5-5-3-3-1-1---1-1-1---1-1-1---1-1-1-0-0-3-3---3-3-3---3-3-3---3-3-3-3-3-----|
D|-5-5---5-5-5---5-5-5---5-5-5-------------------------------------3-3---3-3-3---3-3-3---3-3-3---------|

E|--------------------------|
B|--------------------------|
G|-----------------7---9----|
D|-5-5---5-5-5---5-7---9----|
A|-5-5---5-5-5---5-5---7----|
D|-5-5---5-5-5---5----------|


Verse A

E|----------------------------------------------------------------------|
B|----------------------------------------------------------------------|
G|----------------5-3-333333333333-2----------------5-----------7--9----|
D|-5-555555555555-5-3-333333333333-2-3-333333333333-5-5-555555--7--9----|
A|-5-555555555555-3-1-111111111111-0-3-333333333333-3-5-555555--5--7----|
D|-5-555555555555--------------------3-333333333333---5-555555----------|
PM   ************     ************     ************     ******


Verse B

E|---------------------------------------------------------------------|
B|---------------------------------------------------------------------|
G|---------------5-3-333-333-333-2---------------5---------------------|
D|-5-555-555-555-5-3-333-333-333-2-3-333-333-333-5-5-5555-55555555-----|
A|-5-555-555-555-3-1-111-111-111-0-3-333-333-333-3-5-5555-55555555-----|
D|-5-555-555-555-------------------3-333-333-333---5-5555-55555555-----|
PM    **  **  **      **  **  **      **  **  **      **  


Pre Chorus

E|-------------------------------------------------------------------------------|
B|-------------------------------------------------------------------------------|
G|-------------------------------------5-555555555555----------------------------|
D|-5-55555555555555--8-88888888888888--5-555555555555-5-555555555555-------------|
A|-5-55555555555555--8-88888888888888--3-333333333333-5-555555555555-------------|
D|-5-55555555555555--8-88888888888888-----------------5-555555555555-------------|
PM   **************    **************    ************   ************

Chorus A
[ Tab from: http://www.guitartabs.cc/tabs/p/pennywise/fuck_authority_tab_ver_6.html ]
E|---------------------------------------------------|
B|---------------------------------------------------|
G|---------------------------------------------------|
D|-5--8--10--5---5--8--10-10-10-10-10-10-10-10-10----|
A|-5--8--10--5---5--8--10-10-10-10-10-10-10-10-10----|
D|-5--8--10--5---5--8--10-10-10-10-10-10-10-10-10----|


Post Chorus

E|----------------------------------------------------------------------------------------------|
B|----------------------------------------------------------------------------------------------|
G|----------------8-8-8-8-----------10-10-10-10-----------8-8-----------------------------------|
D|-3--8--5---5-5--8-8-8-8--5---5-5--10-10-10-10--5-5-5-5--8-8--3--8--555555555------------------|
A|-3--8--5---5-5--6-6-6-6--5---5-5---8--8--8--8--5-5-5-5--6-6--3--8--555555555------------------|
D|-3--8--5---5-5-----------5---5-5---------------5-5-5-5-------3--8--555555555---Pickslide------|
PM                                                                   *********


Chorus B
 
E|---------------------------------------------------------------|
B|---------------------------------------------------------------|
G|-----------------------10--------------------------------------|
D|-5--8--10--5---5--8-10-10--5--8--10-10-10-10-10-10-10-10-10----|
A|-5--8--10--5---5--8-10--8--5--8--10-10-10-10-10-10-10-10-10----|
D|-5--8--10--5---5--8-10-----5--8--10-10-10-10-10-10-10-10-10----|



Bridge

E|------------------------------------------------------------------------------|
B|------------------------------------------------------------------------------|
G|---------------------12-12-12-12-12-12-12-12-12-12-12-12-12-12-12-12----------|
D|-3--8--5-5-5--555-------------------------------------------------------------|
A|-3--8--5-5-5--555-------------------------------------------------------------|
D|-3--8--5-5-5--555-------------------------------------------------Pickslide---|

E|------------------------------------------------------------------------|
B|------------------------------------------------------------------------|
G|-8-8-------------------------------8-8----------------------------------|
D|-8-8--8-8--10-10--5-555-5-5-5555---8-8--8-8--10-10--5-555-5-5-5555------|
A|-6-6--8-8--10-10--5-555-5-5-5555---6-6--8-8--10-10--5-555-5-5-5555------|
D|------8-8--10-10--5-555-5-5-5555--------8-8--10-10--5-555-5-5-5555------|
PM                    ***                               ***

E|---------------------------------------------------------------------------------------|
B|---------------------------------------------------------------------------------------|
G|-8-8---10--10-10-10-------------------8-88--10--10-10-10--8-10--121212121212121212-----|
D|-8-8---10--10-10-10---8--10--5-5-5-5--8-88--10--10-10-10--8-10--121212121212121212-----|
A|-6-6----8---8--8--8---8--10--5-5-5-5--6-66---8---8--8--8--6--8--101010101010101010-----|
D|----------------------8--10--5-5-5-5---------------------------------------------------|



ORDER:

Intro (x2)
Verse A
Verse B
Pre Chorus
Chorus A
Post Chorus
Verse A
Verse B
Pre Chorus
Chorus B
Bridge

Chorus A (Palm Muted)
Chorus A
Post Chorus
Comments