Pennywise - Fuck Authority Chords & Tabs

 

Fuck Authority Chords & Tabs

Pennywise Chords & Tabs

Version: 4 Type: Tab 6 ratings
1 star 2 stars 3 stars 4 stars 5 stars
comments

Fuck Authority Tab

   

f***_authority_tab


A:link {
	FONT-WEIGHT: bold; COLOR: black; TEXT-DECORATION: none
}
A:active {
	FONT-WEIGHT: bold; COLOR: black; TEXT-DECORATION: none
}
A:visited {
	FONT-WEIGHT: bold; COLOR: black; TEXT-DECORATION: none
}
A:hover {
	FONT-WEIGHT: bold; COLOR: black; TEXT-DECORATION: underline
}




                  F*** Authority-Pennywise

               Riff 1
e|--------------------------------------------------------|
B|--------------------------------------------------------|
G|-----------------------------------------------8--10----|
D|-5--------10--8--------7--3--------10--5-------8--10----|        x3 
A|-5-(x11)--10--8-(x11)--7--3-(x11)--10--5-(x5)--6--8-----|
E|-3--------8---6--------5--1--------8---3----------------|
 Riff 1be|----------------------------------------------|
B|----------------------------------------------|
G|----------------------------------------------|
D|-5--------10--8--------7--3--------10--5------|        
A|-5-(x11)--10--8-(x11)--7--3-(x11)--10--5-(x8)-|
E|-3--------8---6--------5--1--------8---3------|
[ Tab from: http://www.guitartabs.cc/tabs/p/pennywise/fuck_authority_tab_ver_4.html ]
                       Riff 2
e|-------------------------------------------------------|
B|-------------------------------------------------------|
G|-------------------------------------------------------|        x2
D|-5-------8-------10-------12-------5-------8-----------|
A|-5-(x16)-8-(x16)-10-(x16)-12-(x4)--5-(x2)--8-----------|
E|-3-------6-------8--------10-------3-------6-----------|
                       Solo 1
e|--------------------------------------------------------------------|
B|--------------------------------------------------------------------|
G|--------------------------------------------------------------------|
D|-5-------8------10-------12--5------8--5------8------10------5--8---|
A|-5-(x4)--8-(x4)-10-(x4)--12--5-(x2)-8--5-(x4)-8-(x4)-10-(x7)-5--8---|
E|-3-------6------8--------10--3------6--3------6-------8------3--6---|

e|--------------------------------------------------------------------|
B|--------------------------------------------------------------------|
G|-----------8--------------10---------------8-------10---------------|
D|-5--5------8-(x4)-5-------10-(x4)--5-------8-(x2)--10-(x2)--5-------|
A|-5--5-(x5)-6------5-(x5)--8--------5-(x5)--6-------8--------5-(x6)--|
E|-3--3-------------3----------------3------------------------3-------|
Riff 1   x1 Riff 1b  x1Riff 2   x5
Solo 2   e|----------------------------------------|
B|----------------------------------------|
G|----------------------------------------|
D|-5------8------10------5--8--5--5-------|
A|-5-(x4)-8-(x4)-10-(x9)-5--8--5--5-(x5)--|
E|-3------6------8-------3--6--3--3-------|

e|-------------------------------|
B|-------------------------------|
G|-8------3------5---------------|
D|-8-(x4)-3-(x2)-5-(x2)-5--------|     (x2)
A|-6------1------3------5-(x6)---|
E|----------------------3--------|
e|----------------------------------------------------------------|
B|----------------------------------------------------------------|
G|-8------10------3------5-------------8-------10--8--10--12------|
D|-8-(x4)-10-(x2)-3-(x2)-5-(x2)-5------8-(x4)--10--8--10--12-(x8)-|
A|-6------8-------1------3------5-(x6)-6-------8---6--8---10------|
E|------------------------------3---------------------------------|
               Then Riff 2 Solo 1 That's it if you've got any complaints or corrections please e-mail me atscottie_scottie_scottie@hotmail.com
========================================================================


Comments