Pennywise - Fuck Authority Chords & Tabs

 

Fuck Authority Chords & Tabs

Pennywise Chords & Tabs

Version: 3 Type: Tab 1 rating
1 star 2 stars 3 stars 4 stars 5 stars
comments

Fuck Authority Tab

Artist: Pennywise
Song: Fuck Authority (Intro)
Tabbed By: Philip Arca

It's pretty easy, just listen to the song to get the rythm...
[ Tab from: http://www.guitartabs.cc/tabs/p/pennywise/fuck_authority_tab_ver_3.html ]
e--------------------------------------------------------------
B--------------------------------------------------------------
G-----------------------------5--3-3---3-3-3---3-3-3---3-3-3-2
D-5-5---5-5-5---5-5-5---5-5-5-5--3-3---3-3-3---3-3-3---3-3-3-2
A-5-5---5-5-5---5-5-5---5-5-5-3--1-1---1-1-1---1-1-1---1-1-1-0
E-3-3---3-3-3---3-3-3---3-3-3----------------------------------

e--------------------------------------------------------------
B--------------------------------------------------------------
G-----------------------------5----------------8-8-8-10-10-10--
D-3-3---3-3-3---3-3-3---3-3-3-5--5-5---5-5-5---8-8-8-10-10-10--
A-3-3---3-3-3---3-3-3---3-3-3-3--5-5---5-5-5---6-6-6--8--8--8-
E-1-1---1-1-1---1-1-1---1-1-1----3-3---3-3-3-------------------
Comments