Pennywise - Final Day Chords & Tabs

 

Final Day Chords & Tabs

Pennywise Chords & Tabs

Version: 2 Type: Bass Tab 0 ratings
1 star 2 stars 3 stars 4 stars 5 stars
comments

Final Day Bass Tab

Song: Final Day
Album: Full Circle
Artist: Pennywise
Originally Tabbed By: Some anonymous dude
Corrected By: Jimmy B.

I couldn't really understand the last tab, and it definitely didn't 
have the intro right, even if the verse seemed ok.

Intro

[this first part is played once when the guitar plays loud]

G:-----------| 
D:-----------|
A:-----------|
E:--44-33-11-|

[then this second part is independent of the guitar - you'll hear it]

G:--------------|
D:---76---------|
A:--7---7-77-44-|
E:--------------|

Verse

G:----------------------|
D:----------------------|
A:----444-33-666--------|
E:-111-----------444-33-|

Prechorus
[ Tab from: http://www.guitartabs.cc/tabs/p/pennywise/final_day_btab_ver_2.html ]
G:---------------------------------|---------------------------------|
D:---------------------------------|---------------------------------|
A:-4444444--------44444-66-8888888-|-4444444--------------44-3333333-|
E:--------1111111------------------|---------1111111-44444-----------|

Chorus

G:------------------|
D:------------------|
A:----------3333333-|
E:-11111-44---------|

G:------------------|
D:------------------|
A:-------44-3333333-|
E:-44444------------|

Bit after chorus

G:-------------------|
D:-------------------|
A:-------------11----|
E:-111-111-111----44-|

That's all you should need. Listen to the song, and you'll easily figure 
out the rhythm, where all these parts should go and how many times to play 
them. Email me at thebabblingshaman@hotmail.com with any corrections, 
comments or ideas for a good name for my band.
Comments