Pennywise - Final Chapters Chords & Tabs

 

Final Chapters Chords & Tabs

Pennywise Chords & Tabs

Version: 1 Type: Bass Tab 0 ratings
1 star 2 stars 3 stars 4 stars 5 stars
comments

Final Chapters Bass Tab

Song: FINAL CHAPTERS
Artist: Pennywise
Album: Wildcard/A Word from the Wise
Tabbed by: Brian Hanrahan (hanrahbt@georgetown.edu)

">" means strum
"X" means mute

Check out the song's structure below, and note that
each part leads directly into the next, with no loss
of timing. 

Intro
A|-888-5>-888---------------888-5>-888--------------|
E|------------5-55-555-5-55------------5-55-5>------|

VERSE--Play the triplet (888) prior to strumming the
"A" string ONLY when coming INTO the Verse.  
G|--------------------------------------------------|
D|----------------------------5-5-------------------|
A|-(888)-5>-888---------77-77-----7-5---------------|
E|--------------5-55-55-----------------------------|

Variation on VERSE
G|--------------------------------------------------|
D|---------------------------------------5-5--------|
A|-888-5-55-/12-5-5-55-888---------77-77-----7-5----|
E|-------------------------5-55-55------------------|

CHORUS
A|-3-33-3333-3333-3h5----------0-00-0-0-------------|
E|--------------------1-11-1-1----------------------|

A|-3-33-3333-3333-3h5-0-00-0-0-1-11-1-1-------------|
E|--------------------------------------------------|
[ Tab from: http://www.guitartabs.cc/tabs/p/pennywise/final_chapters_btab.html ]
"Fight, Fight, Fight!"
A|-XX-3-XX-3-XX-3-333----------1-11-1-1-------------|
E|--------------------1-11-1-1----------------------|

A|-XX-3-XX-3-XX-3-333-0-00-0-0-1-11-1-1-------------|
E|--------------------------------------------------|

BASS SOLO--Listen to the song to get the timing.
Part 1
G|-------5/7-5---5/7-5------------------------------|
D|-------------7-------7-------5/7-5---5/7----------|
A|-888-5-----------------888---------7-----7-888-5--|
E|---------------------------5----------------------|

G|-5/7-5---5/7-5------------------------------------|
D|-------7-------7-------5/7-5---5-7----------------|
A|-----------------888---------7-----888-5----------|
E|---------------------5----------------------------|

Part 2
G|-77-5---5-7---------------------------------------|
D|------7-----------77-5---5-7----------------------|
A|------------888--------7-----888-5----------------|
E|----------------5---------------------------------|

OUTRO
G|---------------|
D|---------------|
A|-888-5>-888----|
E|------------5>-|

Song Structure:

Intro (x1)
Verse (x6)
Chorus (x2)
Variation on Verse (x1)
Verse (x5)
Chorus (x2)
"Fight!" (x2)
Bass Solo Part 1 (x1)
Bass Solo Part 2 (x2)--second time will lead
  directly into Outro
Outro (x4.5)

Comments