Pennywise - Fight It Chords & Tabs

 

Fight It Chords & Tabs

Pennywise Chords & Tabs

Version: 2 Type: Tab 0 ratings
1 star 2 stars 3 stars 4 stars 5 stars
comments

Fight It Tab

   
Fight It
By Pennywise
Tabbed by Jennifer K. Anderson

Intro
E)-----------------------------------------------------------|
B)-----------------------------------------------------------|
G)-7-7-7-7-7-7-7-7-7-7/10-9-7-7-7-7-5-5-5-5/10-9-7-7-7-7-7---|
D)-7-7-7-7-7-7-7-7-7-7/10-9-7-7-7-7-5-5-5-5/10-9-7-7-7-7-7---|
A)-5-5-5-5-5-5-5-5-5-5/8--7-5-5-5-5-3-3-3-3/8--7-5-5-5-5-5---|
E)-----------------------------------------------------------|
^---------------------------2X-------------------------------|
[ Tab from: http://www.guitartabs.cc/tabs/p/pennywise/fight_it_tab_ver_2.html ]
Verse ("Somethings gone wrong today..."
E)-----------------------------------------------------------|
B)-----------------------------------------------------------|
G)-7-x-x-x-x-x-x-x/10-9-7-x-x-5-x-x-x-x-x-x-x/10-9-7-x-x-x---|
D)-7-x-x-x-x-x-x-x/10-9-7-x-x-5-x-x-x-x-x-x-x/10-9-7-x-x-x---|
A)-5-x-x-x-x-x-x-x/8--7-5-x-x-3-x-x-x-x-x-x-x/8--7-5-x-x-x---|
E)-----------------------------------------------------------|
^--------------------------2X--------------------------------|
Chorus ("We've got to fight it today..")
E)---------------------------------|
B)---------------------------------|
G)---------10-10-5-5/7-7-7-7-7-7---|
D)-8-8-8-8-10-10-5-5/7-7-7-7-7-7---|
A)-8-8-8-8-8--8--3-3/5-5-5-5-5-5---|
E)-6-6-6-6-------------------------|
^--------------3X------------------|

E)---------------------------------|
B)---------------------------------|
G)---------------------------------|
D)-5-x-x-x-x-x-x-x-7-x-x-x-x-x-x-x-|
A)-5-x-x-x-x-x-x-x-7-x-x-x-x-x-x-x-|
E)-3-x-x-x-x-x-x-x-5-x-x-x-x-x-x-x-|

E)---------------------------------------------------------|
B)---------------------------------------------------------|
G)-7-7-7-7-7-7-7-7-7-7/10-9-7-7-7-7-5-5-5-5/10-9-7-7-7-7-7-|
D)-7-7-7-7-7-7-7-7-7-7/10-9-7-7-7-7-5-5-5-5/10-9-7-7-7-7-7-|
A)-5-5-5-5-5-5-5-5-5-5/8--7-5-5-5-5-3-3-3-3/8--7-5-5-5-5-5-|
E)---------------------------------------------------------|

Verse
Chorus

Bridge ("Wooaahh yeah......")
E)-------------------------------------------------------------------|
B)-------------------------------------------------------------------|
G)-7-7-7-7-7-7-7-7-5-5-5-5-5-5-5-5-----------------------------------|
D)-7-7-7-7-7-7-7-7-5-5-5-5-5-5-5-5-5-5-5-5-5-5-5-5-3-3-3-3-3-3-3-3---|
A)-5-5-5-5-5-5-5-5-3-3-3-3-3-3-3-3-5-5-5-5-5-5-5-5-3-3-3-3-3-3-3-3---|
E)---------------------------------3-3-3-3-3-3-3-3-1-1-1-1-1-1-1-1---|
^-------------------------------4X-----------------------------------|
Main Riff
Solo-too lazy to figure out right now
Chorus
Comments