Pennywise - Everytime Chords & Tabs

 

Everytime Chords & Tabs

Pennywise Chords & Tabs

Version: 1 Type: Bass Tab 0 ratings
1 star 2 stars 3 stars 4 stars 5 stars
comments

Everytime Bass Tab

Song: everytime
Band: pennywise
Album: full circle
tabbed by: Carlos Pino

    intro , verse
G:---------------------------------------------------------------
D:---------------------------------------------------------------
A:-3-3-3-3-3-3-3-3------------6-6-6-6--3-3-3-3-3-3-3-3------------6-6-6-6
E:-----------------------4-4-4-4-----------------------------------4-4-4-4------

G:---------------------------------------------------------------
D:---------------------------------------------------------------
A:-3-3-3-3-3-3-3-3------------6-6-6-6-----------------------8-8-8-8-8-8-8-8
E:-----------------------4-4-4-4------------6-6-6-6-6-6-6-6
[ Tab from: http://www.guitartabs.cc/tabs/p/pennywise/everytime_btab.html ]
   pre chorus
G:---------------------------------------------------------------
D:---------------------------------------------------------------
A:-3-3-3-3------------6-6-6-6--8-8-8-8--3-3-3-3------------6-6-6-6--8-8-8-8
E:------------4-4-4-4------------------------------------4-4-4-4


G:---------------------------------------------------------------
D:---------------------------------------------------------------
A:-3-3-3-3------------6-6-6-6--8-8-8-8-----------------------8-8-8-8-8-8-8-8
E:------------4-4-4-4------------------------6-6-6-6-6-6-6-6

     chorus
G:---------------------------------------------------------------
D:---------------------------------------------------------------
A:-3-3-3-3--6-6-6-6-------------8-8-8-8--3-3-3-3--6-6-6-6--8-8-8-8-8-8--------------------------------------------------
E:-------------------------4-4-4-4--------------------------------------










Comments