Pennywise - Enemy Chords & Tabs

 

Enemy Chords & Tabs

Pennywise Chords & Tabs

Version: 3 Type: Tab 0 ratings
1 star 2 stars 3 stars 4 stars 5 stars
comments

Enemy Tab

   
pennywise-enemy from 'land of the free'
by -Wobbler-


first part plays second guitar, then both guitars

e|-------------------------|-----------|
B|-------------------------|-----------|
G|-9999999-----------------|----12-11-9|
D|-9999999-5555555-9999999-|9-7-12-11-9|x2
A|-7777777-5555555-9999999-|9-7-10--9-7|(second time dont play 
E|---------3333333-7777777-|7-5--------| the last chord!)

e|-------------------------------|
B|-------------------------------|
G|-9999-9-----------------12-11--|
D|-9999-9-5555-5-9999-9-7-12-11--|
A|-7777-7-5555-5-9999-9-7-10--9--|
E|--------3333-3-7777-7-5--------|
pm|....   ....   ....

e|------------------------------------|---------------------------------|
B|------------------------------------|---------------------------------|
G|-9999999---------------------12-11--|-9999999---------7777777---------|
D|-9999999-5555555-9999999-9-7-12-11--|-9999999-5555555-7777777-9999999-|x2
A|-7777777-5555555-9999999-9-7-10--9--|-7777777-5555555-5555555-9999999-|
E|---------3333333-7777777-7-5--------|---------3333333---------7777777-|

\\\ means pickslide at the end
e|-----------------------------------|
B|-----------------------------------|
G|-----------------------------------|
D|--7777777777777-77/99999999-9---\\\| 
A|--7777777777777-77/99999999-9------|
E|--5555555555555-55/77777777-7------|
pm|  ............     .......

e|---------------------------------------------------------------|
B|---------------------------------------------------------------|
G|-9999-9-------------------12-11-9999-9-------------------12-11-|
D|-9999-9-5555-5-9999-9-9-7-12-11-9999-9-5555-5-9999-9-9-7-12-11-|
A|-7777-7-5555-5-9999-9-9-7-10--9-7777-7-5555-5-9999-9-9-7-10--9-|
E|--------3333-3-7777-7-7-5--------------3333-3-7777-7-7-5-------|

e|---------------------------------------------------------------|
B|---------------------------------------------------------------|
G|-9999-9-------------------12-11-9999-9-------------------12-11-|
D|-9999-9-5555-5-9999-9-9-7-12-11-9999-9-5555-5-9999-9-9-7-12-11-|
A|-7777-7-5555-5-9999-9-9-7-10--9-7777-7-5555-5-9999-9-9-7-10--9-|
E|--------3333-3-7777-7-7-5--------------3333-3-7777-7-7-5-------|
pm|....   ....   ....             ....   ....   ....


e|------------------------------------|---------------------------------|
B|------------------------------------|---------------------------------|
G|-9999999---------------------12-11--|-9999999---------7777777---------|
D|-9999999-5555555-9999999-9-7-12-11--|-9999999-5555555-7777777-99-\\\--|
A|-7777777-5555555-9999999-9-7-10--9--|-7777777-5555555-5555555-99------|
E|---------3333333-7777777-7-5--------|---------3333333---------77------|

e|------------------------------------|---------------------------------|
B|------------------------------------|---------------------------------|
G|-9999999---------------------12-11--|-9999999---------7777777---------|
D|-9999999-5555555-9999999-9-7-12-11--|-9999999-5555555-7777777-9999999-|x2
A|-7777777-5555555-9999999-9-7-10--9--|-7777777-5555555-5555555-9999999-|
E|---------3333333-7777777-7-5--------|---------3333333---------7777777-|
[ Tab from: http://www.guitartabs.cc/tabs/p/pennywise/enemy_tab_ver_3.html ]
e|-----------------------------------|
B|-----------------------------------|
G|-----------------------------------|
D|--7777777777777-77/99999999-9---\\\| 
A|--7777777777777-77/99999999-9------|
E|--5555555555555-55/77777777-7------|
pm|  ............     .......

e|---------------------------------------------------------------|
B|---------------------------------------------------------------|
G|-9999-9-------------------12-11-9999-9-------------------12-11-|
D|-9999-9-5555-5-9999-9-9-7-12-11-9999-9-5555-5-9999-9-9-7-12-11-|
A|-7777-7-5555-5-9999-9-9-7-10--9-7777-7-5555-5-9999-9-9-7-10--9-|
E|--------3333-3-7777-7-7-5--------------3333-3-7777-7-7-5-------|

e|---------------------------------------------------------------|
B|---------------------------------------------------------------|
G|-9999-9-------------------12-11-9999-9-------------------12-11-|
D|-9999-9-5555-5-9999-9-9-7-12-11-9999-9-5555-5-9999-9-9-7-12-11-|
A|-7777-7-5555-5-9999-9-9-7-10--9-7777-7-5555-5-9999-9-9-7-10--9-|
E|--------3333-3-7777-7-7-5--------------3333-3-7777-7-7-5-------|
pm|....   ....   ....             ....   ....   ....


guitar 1
e|------------------------------------|---------------------------------|
B|------------------------------------|---------------------------------|
G|-9999999---------------------12-11--|-9999999---------7777777---------|
D|-9999999-5555555-9999999-9-7-12-11--|-9999999-5555555-7777777-9999999-|x2
A|-7777777-5555555-9999999-9-7-10--9--|-7777777-5555555-5555555-9999999-|
E|---------3333333-7777777-7-5--------|---------3333333---------7777777-|

guitar 2 comes in at ca. 1:56 with this
e|----------------------------------------|
B|----------------------------------------|
G|--------2-----4--4-2-4-2----------------|
D|-2--4-5---5-4------------5---4----2-----|
A|--------------------------------5---5-2-|
E|----------------------------------------|

e|-------------------------------------------------------|
B|-------------------------------------------------------|
G|------------------------------------------------12-11--|
D|-77777777777-9-99999999-9-9999999-9-9999999-9-7-12-11--|
A|-77777777777-9-99999999-9-9999999-9-9999999-9-7-10--9--|
E|-55555555555-7-77777777-7-7777777-7-7777777-7-5--------|
pm  ..........   ........   .......   .......

e|---------------------------------------------------------------|
B|---------------------------------------------------------------|
G|-9999-9-------------------12-11-9999-9-------------------12-11-|
D|-9999-9-5555-5-9999-9-9-7-12-11-9999-9-5555-5-9999-9-9-7-12-11-|
A|-7777-7-5555-5-9999-9-9-7-10--9-7777-7-5555-5-9999-9-9-7-10--9-|
E|--------3333-3-7777-7-7-5--------------3333-3-7777-7-7-5-------|
pm|....   ....   ....             ....   ....   ....

e|---------------------------------------------------------------|
B|---------------------------------------------------------------|
G|-9999-9-------------------12-11--99999-----------------12-11-9-|
D|-9999-9-5555-5-9999-9-9-7-12-11--99999-55555-99999-9-7-12-11-9-|
A|-7777-7-5555-5-9999-9-9-7-10--9--77777-55555-99999-9-7-10--9-7-|
E|--------3333-3-7777-7-7-5--------------33333-77777-7-5---------|
pm|....   ....   ....             

suggestions,comments...el_diablo7th@freenet.de
Comments