Pennywise - Dying Chords & Tabs

 

Dying Chords & Tabs

Pennywise Chords & Tabs

Version: 1 Type: Tab 0 ratings
1 star 2 stars 3 stars 4 stars 5 stars
comments

Dying Tab

   
pennywise
dying
the fuse('05)
----------------------------------------------------------------------------
tabber: Wobbler
standart tuning
----------------------------------------------------------------------------
i'm not sure about the solo because its very hard to hear...if you get it better,mail me!!!

intro
e|----------------------------------------------------------|
B|----------------------------------------------------------|
G|-5~~~~5--------55-5-53-55-53-55-88-8-8-888-1010101010-----|
D|-5~~~~5--------55-5-53-55-53-55-88-8-8-888-1010101010-----|
A|-3~~~~3--------33-3-33-33-33-33-66-6-6-666--8-8-8-8-8\\\--|
E|---------bass---------------------------------------------|
pm               ..   .  .  .     ..   .

pre-verse
e|--------------------------------------|
B|--------------------------------------|
G|-6\55-55-------888--6\55-55-8-88-1010-|
D|-6\55-55-55-88-888--6\55-55-8-88-1010-|
A|-4\33-33-55-88-666--4\33-33-6-66--8-8-|
E|---------33-66------------------------|

verse \"hate breeds hate..."\
e|------------------------------------------------------------|
B|------------------------------------------------------------|
G|-6\55-55-------888--6\55-55-------101010--6\55-55-------888-|
D|-6\55-55-55-88-888--6\55-55-55-88-101010--6\55-55-55-88-888-|
A|-4\33-33-55-88-666--4\33-33-55-88--8-8-8--4\33-33-55-88-666-|
E|---------33-66--------------33-66-----------------33-66-----|
pm         .. ..              .. ..                 .. ..

verse \"as the reasons linger deep inside..."\
e|---------------|
B|---------------|
G|-6-------66-88-|
D|-6-88-88-66-88-|
A|-4-88-88-44-66-|
E|---66-66-------|

chorus \"penance for a single day..."\
e|--------------------------------------------------------------------|
B|--------------------------------------------------------------------|
G|-6\5-5-55---------------------10\88-77-6\5-5-55---------------------|
D|-6\5-5-55-8\66-6-66-5\33-3-33-10\88-77-6\5-5-55-8\66-6-66-5\33-3-33-|
A|-4\3-3-33-8\66-6-66-5\33-3-33--8\66-55-4\3-3-33-8\66-6-66-5\33-3-33-|
E|----------6\44-4-44-3\11-1-11-------------------6\44-4-44-3\11-1-11-|

e|----------|
B|----------|
G|-10\88-77-|
D|-10\88-77-|
A|--8\66-55-|
E|----------|

after-chorus \"war - in the eyes..."\
e|------------------------------------------------------------------|
B|------------------------------------------------------------------|
G|-5-555555----------------------------5-555555---------------------|
D|-5-555555-5-555555-6-666666-3-333333-5-555555-5-555555-6-666666-6-|
A|-3-333333-5-555555-6-666666-3-333333-3-333333-5-555555-6-666666-6-|
E|----------3-333333-4-444444-1-111111----------3-333333-4-444444-4-|
pm   ......   ......   ......   ......   ......   ......   ......

e|--------------|
B|--------------|
G|-101010101010-|
D|-101010101010-|
A|--8-8-8-8-8-8-|
E|--------------|

pre-verse
e|--------------------------------------|
B|--------------------------------------|
G|-6\55-55-------888--6\55-55-8-88-1010-|
D|-6\55-55-55-88-888--6\55-55-8-88-1010-|
A|-4\33-33-55-88-666--4\33-33-6-66--8-8-|
E|---------33-66------------------------|

verse \"terminate their right to be..."\
e|------------------------------------------------------------|
B|------------------------------------------------------------|
G|-6\55-55-------888--6\55-55-------101010--6\55-55-------888-|
D|-6\55-55-55-88-888--6\55-55-55-88-101010--6\55-55-55-88-888-|
A|-4\33-33-55-88-666--4\33-33-55-88--8-8-8--4\33-33-55-88-666-|
E|---------33-66--------------33-66-----------------33-66-----|
pm         .. ..              .. ..                 .. ..

verse \"beheard for a shallow grave..."\
e|---------------|
B|---------------|
G|-6-------66-88-|
D|-6-88-88-66-88-|
A|-4-88-88-44-66-|
E|---66-66-------|
[ Tab from: http://www.guitartabs.cc/tabs/p/pennywise/dying_tab.html ]
chorus \"whoring in complacency..."\
e|--------------------------------------------------------------------|
B|--------------------------------------------------------------------|
G|-6\5-5-55---------------------10\88-77-6\5-5-55---------------------|
D|-6\5-5-55-8\66-6-66-5\33-3-33-10\88-77-6\5-5-55-8\66-6-66-5\33-3-33-|
A|-4\3-3-33-8\66-6-66-5\33-3-33--8\66-55-4\3-3-33-8\66-6-66-5\33-3-33-|
E|----------6\44-4-44-3\11-1-11-------------------6\44-4-44-3\11-1-11-|

e|----------|
B|----------|
G|-10\88-77-|
D|-10\88-77-|
A|--8\66-55-|
E|----------|

after-chorus \"war - in the eyes..."\
e|------------------------------------------------------------------|
B|------------------------------------------------------------------|
G|-5-555555----------------------------5-555555---------------------|
D|-5-555555-5-555555-6-666666-3-333333-5-555555-5-555555-6-666666-6-|
A|-3-333333-5-555555-6-666666-3-333333-3-333333-5-555555-6-666666-6-|
E|----------3-333333-4-444444-1-111111----------3-333333-4-444444-4-|
pm   ......   ......   ......   ......   ......   ......   ......

e|--------------|
B|--------------|
G|-101010101010-|
D|-101010101010-|
A|--8-8-8-8-8-8-|
E|--------------|

interlude
e|-----------------------------------------------------------------------|
B|-----------------------------------------------------------------------|
G|-5~~~~5-----5~~~~5-------------5---------------------------------------|
D|-5~~~~5-----5~~~~5-\pickslide\-5--------------------------\pickslide\--|
A|-3~~~~3----\3~~~~3-------------3---------------------------------------|
E|---------------------------------bass-bass-bass-bass-bass--------------|

breakdown \"war - in the eyes..."\
e|-----------------------------------------------------------------|
B|-----------------------------------------------------------------|
G|-5-55-55-------------------------5-55-55-------------------------|
D|-5-55-55-5-55-55-6-66-66-3-33-33-5-55-55-5-55-55-6-66-66-3-33-33-|
A|-3-33-33-5-55-55-6-66-66-3-33-33-3-33-33-5-55-55-6-66-66-3-33-33-|
E|---------3-33-33-4-44-44-1-11-11---------3-33-33-4-44-44-1-11-11-|

solo
e|--------------------------------------------------|
B|--------------------------------------------------|
G|-7\5/7-5/7\5-8\7/8-7/8\7-10\8/10-8/10\8-88-8-77-7-|
D|-x-x-x-x-x-x-x-x-x-x-x-x--x-x--x-x--x-x-xx-x-xx-x-|
A|-5\3/5-3/5\3-6\5/6-5/6\5--8\6/-8-6/-8\6-66-6-55-5-|
E|--------------------------------------------------|

e|--------------------------------------------------|
B|--------------------------------------------------|
G|-7\5/7-5/7\5-8\7/8-7/8\7-10\8/10-8/10\8-88-8-77-7-|
D|-x-x-x-x-x-x-x-x-x-x-x-x--x-x--x-x--x-x-xx-x-xx-x-|
A|-5\3/5-3/5\3-6\5/6-5/6\5--8\6/-8-6/-8\6-66-6-55-5-|
E|--------------------------------------------------|

solo rythm
e|--------------------------------------------------------------------|
B|--------------------------------------------------------------------|
G|-6\5-5-55---------------------10\88-77-6\5-5-55---------------------|
D|-6\5-5-55-8\66-6-66-5\33-3-33-10\88-77-6\5-5-55-8\66-6-66-5\33-3-33-|
A|-4\3-3-33-8\66-6-66-5\33-3-33--8\66-55-4\3-3-33-8\66-6-66-5\33-3-33-|
E|----------6\44-4-44-3\11-1-11-------------------6\44-4-44-3\11-1-11-|

e|----------|
B|----------|
G|-10\88-77-|
D|-10\88-77-|
A|--8\66-55-|
E|----------|

outro guitar one \"dying in the world..."\
e|---------------------------------------------------------|
B|---------------------------------------------------------|
G|-5~-5-----------------8~-7~--5~-5-----------------8~-7~--|
D|-x--x-8\6~-6\5\3~-5\3-x--x---x--x-8\6~-6\5\3~-5\3-x--x---|
A|-3~-3-x-x--x-x-x--x-x-6~-5~--3~-3-x-x--x-x-x--x-x-6~-5~--|
E|------6\4~-4\3\1~-3\1-------------6\4~-4\3\1~-3\1--------|

outro guitar two
e|--------------------------------------------------------------------|
B|--------------------------------------------------------------------|
G|-6\5-5-55---------------------10\88-77-6\5-5-55---------------------|
D|-6\5-5-55-8\66-6-66-5\33-3-33-10\88-77-6\5-5-55-8\66-6-66-5\33-3-33-|
A|-4\3-3-33-8\66-6-66-5\33-3-33--8\66-55-4\3-3-33-8\66-6-66-5\33-3-33-|
E|----------6\44-4-44-3\11-1-11-------------------6\44-4-44-3\11-1-11-|

e|------------|
B|------------|
G|-10\88-77-5-|
D|-10\88-77-5-|
A|--8\66-55-3-|
E|------------|

thats it...i know it isn't 100% correct but you can play with!!!
pleaZ RATE!
mail: el_diablo7th@freenet.de
Comments