Pennywise - Down Under Chords & Tabs

 

Down Under Chords & Tabs

Pennywise Chords & Tabs

Version: 1 Type: Chords 0 ratings
1 star 2 stars 3 stars 4 stars 5 stars
comments

Down Under Chords

   
Intro (also Chorus Riff):
  C      G	    am      F   G
|-----------------|-----------------|
|-----------------|-----------------|
|-5-5-5-5---------|-----------------|
|-5-5-5-5-5-5-5-5-|-7-7-7-7-3-3-5-5-|
|-3-3-3-3-5-5-5-5-|-7-7-7-7-3-3-5-5-|
|---------3-3-3-3-|-5-5-5-5-1-1-3-3-|





 C                   G            am   F  G
Traveling in a fried-out combie
On a hippie trail, head full of zombie
I met a strange lady, she made me nervous
She took me in and gave me breakfast and she said,


am              G            am    F  G
 "Do you come from a land down under?
 Where women glow and men plunder?
 Can't you hear, can't you hear the thunder?
 You better run, you better take cover."

 C                   G            am   F  G
Buying bread from a man in Brussels
He was six foot four and full of muscles
I said, "Do you speak-a my language?"
He just smiled and gave me a vegemite sandwich
And he said,


am              G            am    F  G
 "I come from a land down under
 Where beer does flow and men chunder
 Can't you hear, can't you hear the thunder?
 You better run, you better take cover."

[ Tab from: http://www.guitartabs.cc/tabs/p/pennywise/down_under_crd.html ]
Solo 
e|---------------------------------------------------------------------------| 
B|------------------------------------------------------------3--5-----------| 
G|--5-5--4-4-4--5-4-2--------5-5-4H5P4--2--------5-5--4-4-4------------------| 
D|-----------------------------------------2---------------------------------| 
A|---------------------------------------------------------------------------| 
E|---------------------------------------------------------------------------| 

e|-8(10)--7(9)--5(7)--5(7)----8-7-5------------------------------------------| 
B|-----------------------------------8----5----------------------------------| 
G|-------------------------------------7-------------------------------------| 
D|---------------------------------------------------------------------------| 
A|---------------------------------------------------------------------------| 
E|---------------------------------------------------------------------------| 



 C                   G            am   F  G
Lying in a den in Bombay
With a slack jaw, and not much to say
I said to the man, "Are you trying to tempt me
Because I come from the land of plenty?"
And he said,


  am              G            am    F  G
 "Oh! Do you come from a land down under?
 Where women glow and men plunder?
 Can't you hear, can't you hear the thunder?
 You better run, you better take cover."
Comments