Pennywise - Down Under Chords & Tabs

 

Down Under Chords & Tabs

Pennywise Chords & Tabs

Version: 2 Type: Bass Tab 0 ratings
1 star 2 stars 3 stars 4 stars 5 stars
comments

Down Under Bass Tab

Down Under
As performed by Pennywise

Riff 1
|-------------------------------|
|-------------------------------|
|-3-3-3-3-------0-0-0-0---------|
|--------3-3-3-3--------1-1-3-3-|

Verse Riff
|---------------------------------|
|---------------------------------|
|-0-0-0-0---------0-0-0-0---------|
|---------3-3-3-3---------1-1-3-3-|
[ Tab from: http://www.guitartabs.cc/tabs/p/pennywise/down_under_btab_ver_2.html ]
Chorus (riff 1)
Then, riff 3
|---------------------|
|---------------------|
|-3--3------0--0------|
|------3--3------1--3-|

Order Riff 1 x 4
Verse riff x 4
Riff 1 x 3
Riff 3 x 2
Verse riff x 4
Riff 1 x 3
Riff 3 x 2
Solo:
Verse riff x 4
Riff 1 x 2
Verse riff x 4
Riff 1 x 3
Riff 3 x 3

Then...
|-------------------------|
|-------------------------|
|-3-------------0---------|
|--------3----------------|

END

comments, questions, requests, hate mail, bomb threats etc.
send to: wacka_smacka@hotmail.com.au
Comments