Pennywise - Date With Destiny Chords & Tabs

 

Date With Destiny Chords & Tabs

Pennywise Chords & Tabs

Version: 1 Type: Tab 0 ratings
1 star 2 stars 3 stars 4 stars 5 stars
comments

Date With Destiny Tab

   
intro:
e-|------------------------------------------------------------------------|
B-|------------------------------------------------------------------------|
G-|-7-9-10-9-12-10-9-10-9-7-9-10-9-7-7--7-9-10-9-12-10-9-10-9-7-9-10-12-19-|
D-|-x-x--x-x-xx--x-x--x-x-x-x--x-x-x-x--x-x--x-x-xx--x-x--x-x-x-x--x-xx-xx-|
A-|-5-7--8-7-10--8-7--8-7-5-7--8-7-5-5--5-7--8-7-10--8-7--8-7-5-7--8-10-17-|
E-|------------------------------------------------------------------------|

verse:
e-|------------------------------------------|
B-|------------------------------------------|
G-|------------------------------------------|
D-|-7-7-7-7-10-10-10-10-5-5-5-5-7-7-10-12-10-|
A-|-5-5-5-5--8--8--8--8-3-3-3-3-5-5--8-10--8-|
E-|------------------------------------------|

chorus:
e-|------------------------------------------------------------------------|
B-|------------------------------------------------------------------------|
G-|------------------------------------------------------------------------|
D-|-7-5-10-10-10---5-7--7-5-10-10-10-----10-7--7-5-10-10-10---5-7--7-7-10--|
A-|-5-3--8--8--8-7-3-5--5-3--8--8--8-7-7--8-5--5-3--8--8--8-7-3-5--5-3--8--|
E-|--------------5-------------------5-5--------------------5--------------|

e-|----------------|-----------------------------------------------------|
B-|----------------|-----------------------------------------------------|
G-|----------------|-----------------------------------------------------|
D-|-10-10-----10-7-|-10-10-10-10-5-5-5-5---------------------------------|
A-|--8--8-7-7--8-5-|--8--8--8--8-3-3-3-3-5-5-3-3-8-8-7-7-5-5-3-3-8-8-7-7-|
E-|-------5-5------|-----------------------------------------------------|
[ Tab from: http://www.guitartabs.cc/tabs/p/pennywise/date_with_destiny_tab.html ]
e-|-------------------------------------------------------------------------|
B-|-------------------------------------------------------------------------|
G-|-------------------------------------------------------------------------|
D-|-10-10-10-10-5-5-5-5---------------------------------3-3-3-3-3-3-3-3-5-5-|
A-|--8--8--8--8-3-3-3-3-5-5-3-3-8-8-7-7-5-5-3-3-8-8-7-7-1-1-1-1-1-1-1-1-3-3-|
E-|-------------------------------------------------------------------------|

e-|-----------------------------------------------------------------------|
B-|-----------------------------------------------------------------------|
G-|-----------------------------------------------------------------------|
D-|-5-5-5-5-5-5-7-7-7-7-7-7-7-7-7-7-7-7-7-7-7-7-3-3-3-3-3-3-3-3-5--5-5--5-|
A-|-3-3-3-3-3-3-5-5-5-5-5-5-5-5-5-5-5-5-5-5-5-5-1-1-1-1-1-1-1-1-3--3-3--3-|
E-|-----------------------------------------------------------------------|

outro:
e-|-------------------------------------------------------------------------|
B-|-------------------------------------------------------------------------|
G-|-------------------------------------------------------------------------|
D-|-10-10-10-10-10-10-10-10-12-12-12-12-12-12-12-12-7-7-7-7-7-7-7-7-7-7-7-7-|
A-|--8--8--8--8--8--8--8--8-10-10-10-10-10-10-10-10-5-5-5-5-5-5-5-5-5-5-5-5-|
E-|-------------------------------------------------------------------------|

e-|-------------------------------------------------------------------------|
B-|-------------------------------------------------------------------------|
G-|-------------------------------------------------------------------------|
D-|-7-7-7-7-10-10-10-10-10-10-10-10-12-12-12-12-12-12-12-12-7-7-7-7-7-7-----|
A-|-5-5-5-5--8--8--8--8--8--8--8--8-10-10-10-10-10-10-10-10-5-5-5-5-5-5-etc-|
E-|-------------------------------------------------------------------------|
Comments