Pennywise - Date With Destiny Chords & Tabs

 

Date With Destiny Chords & Tabs

Pennywise Chords & Tabs

Version: 2 Type: Bass Tab 0 ratings
1 star 2 stars 3 stars 4 stars 5 stars
comments

Date With Destiny Bass Tab

   
--------------------------------------------
date with destiny / pennywise
--------------------------------------------

tabbed by carlos pino

    verse
G]---------------------------------------------------------------------------
D]---------------------------------------------------------------------------
A]-5-5-5-5--8-8-8-8--3-3-3-3--5-5-8-10-8------------------------
E]---------------------------------------------------------------------------

    chorus                      
G]---------------------------------------------------------------------------
D]---------------------------------------------------------------------------
A]-5-3-8-8-8----3-5-5-3-8-8-8------8-5-5-3-8-8-8----3-5-5-3-8
E]---------------5--------------------5-5--------------------5--------------
[ Tab from: http://www.guitartabs.cc/tabs/p/pennywise/date_with_destiny_btab_ver_2.html ]
G]---------------------------------------------------------------------------
D]---------------------------------------------------------------------------
A]--3-5-5-3-8--8-8-8-8--3-3-3-3-5-5-3-3-8-8-7-7-5-5---------
E]---------------------------------------------------------------------------

G]---------------------------------------------------------------------------
D]---------------------------------------------------------------------------
A]-3-3-8-8-7-7-8-8-8-8-3-3-3-3-5-5-3-3-8-8-7-7-5-5-3-3-8-8-7-7
E]---------------------------------------------------------------------------

G]---------------------------------------------------------------------------
D]---------------------------------------------------------------------------
A]-1-1-1-1-1-1-1-1-3-3--3-3-3-3-3-3--5-(x 16)-3-3-3-3------
E]---------------------------------------------------------------------------
   
    outro
G]---------------------------------------------------------------------------
D]---------------------------------------------------------------------------
A]-8-8-8-8-8-8-8-8-10-10-10-10-10-10-10--5(x 12)---5-5-5-5-8-8-8-8-8-8-8-8-10-10-10-10-10-10-10-10
E]---------------------------------------------------------------------------

Comments