Pennywise - Competition Song Chords & Tabs

 

Competition Song Chords & Tabs

Pennywise Chords & Tabs

Version: 1 Type: Tab 0 ratings
1 star 2 stars 3 stars 4 stars 5 stars
comments

Competition Song Tab

   
pennywise
competition song
the fuse ('05)
----------------------------------------------------------------------------
tabber: Wobbler 
standart tuning
----------------------------------------------------------------------------
the leadguitar was very hard to get and i thanks my buddy Aart a lot for his help.

( )  harmonic 
 X   mute
b(x) bend that it sounds like x
r(x) release that it sounds like x
 h   hammer on
 p   pull off
 /   slide
 pm  palm mute

intro (with any weird effect)
e|-------------------------|
B|-------------------------|
G|-------------------------|
D|-999-7-999-7-999-7-9-XXX-|
A|-999-7-999-7-999-7-9-XXX-|
E|-777-5-777-5-777-5-7-XXX-|

pre-verse guitar one
e|-------------------------|
B|-------------------------|
G|-------------------7---7-|
D|-999-7-999-7-999-7-7-7-7-|
A|-999-7-999-7-999-7-5-7-5-|
E|-777-5-777-5-777-5---5---|

pre-verse guitar two
e|-------------------------------------------|
B|-------------------------------------------|
G|-11-11-11-9-11-11-11-9-11-11-11-9-11p9-7-9-|
D|-------------------------------------------|
A|-------------------------------------------|
E|-------------------------------------------|

pre-verse guitar one
e|----------------------------|
B|----------------------------|
G|-------------------7/9-10\9-|
D|-999-7-999-7-999-7-7/9-10\9-|
A|-999-7-999-7-999-7-5/7-8-\7-|
E|-777-5-777-5-777-5----------|

pre-verse guitar two
e|-------------------------------------------|
B|-------------------------------------------|
G|-11-11-11-9-11-11-11-9-11-11-11-9-11-12-11-|
D|-------------------------------------------|
A|-------------------------------------------|
E|-------------------------------------------|

pre-verse guitar one
e|-------------------------|
B|-------------------------|
G|-------------------7---7-|
D|-999-7-999-7-999-7-7-7-7-|
A|-999-7-999-7-999-7-5-7-5-|
E|-777-5-777-5-777-5---5---|

pre-verse guitar two
e|-------------------------------------------|
B|-------------------------------------------|
G|-11-11-11-9-11-11-11-9-11-11-11-9-11p9-7-9-|
D|-------------------------------------------|
A|-------------------------------------------|
E|-------------------------------------------|

pre-verse guitar one
e|--------------------------|
B|--------------------------|
G|--------------------------|
D|-999-7-999-7-999-7-7-9-10-|
A|-999-7-999-7-999-7-5-7-8--|
E|-777-5-777-5-777-5--------|
pm                   . . .

pre-verse guitar two
e|----------------------------------|
B|----------------------------------|
G|-11-11-11-9-11-11-11-9-11-11-11-9-|
D|----------------------------------|
A|----------------------------------|
E|----------------------------------|

verse \"within all of us is the instinct of survive and..."\
e|--------------------------------------------------|
B|--------------------------------------------------|
G|-------------------7---7--------------------9-7---|
D|-999-7-999-7-999-7-7-7-7--999-7-999-7-999-7-9-7-9-|
A|-999-7-999-7-999-7-5-7-5--999-7-999-7-999-7-7-5-9-|
E|-777-5-777-5-777-5---5----777-5-777-5-777-5-----7-|

verse \"we fear the foreign cultures that are different..."\
e|--------------------------------------------------|
B|--------------------------------------------------|
G|-------------------7---7--------------------9-7---|
D|-999-7-999-7-999-7-7-7-7--999-7-999-7-999-7-9-7-9-|
A|-999-7-999-7-999-7-5-7-5--999-7-999-7-999-7-7-5-9-|
E|-777-5-777-5-777-5---5----777-5-777-5-777-5-----7-|

pre-chorus \"we fight amongst ourselves..."\
E|-----------------------------------------------|
B|-----------------------------------------------|
G|-----------------------------------------7---7-|
D|-555-5-5-55-777-7-7-77-999-7-999-7-999-7-7-7-7-|
A|-555-5-5-55-777-7-7-77-999-7-999-7-999-7-5-7-5-|
E|-333-3-3-33-555-5-5-55-777-5-777-5-777-5---5---|

E|-----------------------------------------------|
B|-----------------------------------------------|
G|-----------------------------------------7---7-|
D|-555-5-5-55-777-7-7-77-999-7-999-7-999-7-7-7-7-|
A|-555-5-5-55-777-7-7-77-999-7-999-7-999-7-5-7-5-|
E|-333-3-3-33-555-5-5-55-777-5-777-5-777-5---5---|

chorus \"and we compete until we die..."\
E|-----------------------------------------|
B|-----------------------------------------|
G|-777-----------------777-----------------|
D|-777-777-999-7-999-7-777-777-999-7-999-7-|
A|-555-777-999-7-999-7-555-777-999-7-999-7-|
E|-----555-777-5-777-5-----555-777-5-777-5-|

chorus \"and we belive in ancient lies..."\
E|-------------------------------------|
B|-------------------------------------|
G|-777-----------------777-------------|
D|-777-777-999-7-999-7-777-777-999-7-9-|
A|-555-777-999-7-999-7-555-777-999-7-9-|
E|-----555-777-5-777-5-----555-777-5-7-|

pre-verse guitar one
e|-------------------------|
B|-------------------------|
G|-------------------7---7-|
D|-999-7-999-7-999-7-7-7-7-|
A|-999-7-999-7-999-7-5-7-5-|
E|-777-5-777-5-777-5---5---|

pre-verse guitar two
e|--------------------------------------------|
B|-10-----------------------------------------|
G|---9b-(10)-r(9)-9b(9.5)r(9)b(9.5)r-11p9-7-9-|
D|--------------------------------------------|
A|--------------------------------------------|
E|--------------------------------------------|

pre-verse guitar one
e|----------------------------|
B|----------------------------|
G|-------------------7/9-10\9-|
D|-999-7-999-7-999-7-7/9-10\9-|
A|-999-7-999-7-999-7-5/7-8-\7-|
E|-777-5-777-5-777-5----------|

pre-verse guitar two
e|----------------------------|
B|-12-------------------------|
G|---9b-(10)-r(9)-9b(9.5)r(9)-|
D|----------------------------|
A|----------------------------|
E|----------------------------|
[ Tab from: http://www.guitartabs.cc/tabs/p/pennywise/competition_song_tab.html ]
pre-verse guitar one
e|-------------------------|
B|-------------------------|
G|-------------------7---7-|
D|-999-7-999-7-999-7-7-7-7-|
A|-999-7-999-7-999-7-5-7-5-|
E|-777-5-777-5-777-5---5---|


pre-verse guitar two
e|--------------------------------------------|
B|--------------------------------------------|
G|-119b-(10)-r(9)-9b(9.5)r(9)b(9.5)r-11p9-7-9-|
D|--------------------------------------------|
A|--------------------------------------------|
E|--------------------------------------------|

pre-verse guitar one
e|--------------------------|
B|--------------------------|
G|--------------------------|
D|-999-7-999-7-999-7-7-9-10-|
A|-999-7-999-7-999-7-5-7-8--|
E|-777-5-777-5-777-5--------|
pm                   . . .

pre-verse guitar two
e|---11b(12)~~~~~~~~~~------|
B|-12-----------------------|
G|--------------------------|
D|--------------------------|
A|--------------------------|
E|--------------------------|

verse \"we struggle against each other to get things..."\
e|--------------------------------------------------|
B|--------------------------------------------------|
G|-------------------7---7--------------------9-7---|
D|-999-7-999-7-999-7-7-7-7--999-7-999-7-999-7-9-7-9-|
A|-999-7-999-7-999-7-5-7-5--999-7-999-7-999-7-7-5-9-|
E|-777-5-777-5-777-5---5----777-5-777-5-777-5-----7-|

verse \"we seperate ourselves by the colour of our skin..."\
e|--------------------------------------------------|
B|--------------------------------------------------|
G|-------------------7---7--------------------9-7---|
D|-999-7-999-7-999-7-7-7-7--999-7-999-7-999-7-9-7-9-|
A|-999-7-999-7-999-7-5-7-5--999-7-999-7-999-7-7-5-9-|
E|-777-5-777-5-777-5---5----777-5-777-5-777-5-----7-|

pre-chorus \"we fight amongst ourselves..."\
E|-----------------------------------------------|
B|-----------------------------------------------|
G|-----------------------------------------7---7-|
D|-555-5-5-55-777-7-7-77-999-7-999-7-999-7-7-7-7-|
A|-555-5-5-55-777-7-7-77-999-7-999-7-999-7-5-7-5-|
E|-333-3-3-33-555-5-5-55-777-5-777-5-777-5---5---|

E|-----------------------------------------------|
B|-----------------------------------------------|
G|-----------------------------------------7---7-|
D|-555-5-5-55-777-7-7-77-999-7-999-7-999-7-7-7-7-|
A|-555-5-5-55-777-7-7-77-999-7-999-7-999-7-5-7-5-|
E|-333-3-3-33-555-5-5-55-777-5-777-5-777-5---5---|

chorus \"and we compete until we die..."\
E|-----------------------------------------|
B|-----------------------------------------|
G|-777-----------------777-----------------|
D|-777-777-999-7-999-7-777-777-999-7-999-7-|
A|-555-777-999-7-999-7-555-777-999-7-999-7-|
E|-----555-777-5-777-5-----555-777-5-777-5-|

chorus \"and we belive in ancient lies..."\
E|-----------------------------------------------|
B|-----------------------------------------------|
G|-777-----------------777-----------------------|
D|-777-777-999-7-999-7-777-777-999-7-9-----------|
A|-555-777-999-7-999-7-555-777-999-7-9-----------|
E|-----555-777-5-777-5-----555-777-5-7-(7)(7)(7)-|

solo rythm (maybe i'll post the solo later...i haven't figure it out yet)
e|--------------------------------------------------|
B|--------------------------------------------------|
G|-------------------7---7--------------------9-7---|
D|-999-7-999-7-999-7-7-7-7--999-7-999-7-999-7-9-7-9-|
A|-999-7-999-7-999-7-5-7-5--999-7-999-7-999-7-7-5-9-|
E|-777-5-777-5-777-5---5----777-5-777-5-777-5-----7-|

e|--------------------------------------------------|
B|--------------------------------------------------|
G|-------------------7---7--------------------9-7---|
D|-999-7-999-7-999-7-7-7-7--999-7-999-7-999-7-9-7-9-|
A|-999-7-999-7-999-7-5-7-5--999-7-999-7-999-7-7-5-9-|
E|-777-5-777-5-777-5---5----777-5-777-5-777-5-----7-|

bridge guitar one \"and we compete until we die..."\
E|------------------------------------------------------------------------|
B|------------------------------------------------------------------------|
G|------------------------------------------------------------------------|
D|--5---5--7---7--9~-------5---5---7---7---9~-------5---5---7---7---9~--|
A|--5---5--7---7--9~-------5---5---7---7---9~-------5---5---7---7---9~--|
E|--3---3--5---5--7~-------3---3---5---5---7~-------3---3---5---5---7~--|

bridge guitar two \"and we compete until we die..."\
e|-------------------------------------------------------------------------|
B|-------------------------------------------------------------------------|
G|-9--7----------9--7---------------9--7-----------------------------------|
D|------9--7--9~------9--7-----7h9p7-----9--7--9-77-7-9-77-7-9-77-7-9-7-9-7|
A|--------------------------9~---------------------------------------------|
E|-------------------------------------------------------------------------|

bridge guitar one \"then we'd all survive..."\
e|------------------------------------------|
B|------------------------------------------|
G|------------------------------------------|
D|-5---5---7---7---99999999-----------------|
A|-5---5---7---7---99999999-\\\pickslide\\\-|
E|-3---3---5---5---77777777-----------------|
pm                 ........

bridge guitar two \"then we'd all survive..."\
e|----------------------------|
B|----------------------------|
G|--9---7---------------------|
D|---------9---7---99999999-9-|
A|----------------------------|
E|----------------------------|
pm                 ........

outro \"and we compete until we die..."\
E|-----------------------------------------|
B|-----------------------------------------|
G|-777-----------------777-----------------|
D|-777-777-999-7-999-7-777-777-999-7-999-7-|
A|-555-777-999-7-999-7-555-777-999-7-999-7-|
E|-----555-777-5-777-5-----555-777-5-777-5-|

outro \"and we belive in ancient lies..."\
E|--------------------------------------|
B|--------------------------------------|
G|-777-----------------777--------------|
D|-777-777-999-7-999-7-777-777-999-7-9--|
A|-555-777-999-7-999-7-555-777-999-7-9--|
E|-----555-777-5-777-5-----555-777-5-7--|

end on
e|---|
B|---|
G|---|
D|-9-|
A|-9-|
E|-7-|

thats it
have fun and R A T E
el_diablo7th@freenet.de

Comments