Pennywise - Come Out Fighting Chords & Tabs

 

Come Out Fighting Chords & Tabs

Pennywise Chords & Tabs

Version: 2 Type: Tab 0 ratings
1 star 2 stars 3 stars 4 stars 5 stars
comments

Come Out Fighting Tab

   
From: Rambozo 
Subject: Come Out Fighting by PENNYWISEverse:
e-|---------------------------------------------------------|
B-|---------------------------------------------------------|
G-|-------------5-5-7-7-7-7-5-5-------------5-5-7-7-7-7-5-5-|
D-|-5-5-5-5-5-5-3-3-5-5-5-5-3-3-5-5-5-5-5-5-3-3-5-5-5-5-3-3-|
A-|-3-3-3-3-3-3-----------------3-3-3-3-3-3-----------------|
E-|---------------------------------------------------------|

[ Tab from: http://www.guitartabs.cc/tabs/p/pennywise/come_out_fighting_tab_ver_2.html ]
pre chorus:
e-|-------------------------------------------------------------------------|
B-|-------------------------------------------------------------------------|
G-|-----9-5-5-5-5-10-10-10-10-5-5-5-5-----7-5-5-5-5-10-10-10-10-12-12-12-12-|
D-|-5-5-9-5-5-5-5-10-10-10-10-5-5-5-5-5-5-7-5-5-5-5-10-10-10-10-12-12-12-12-|
A-|-5-5-7-3-3-3-3--8--8--8--8-3-3-3-3-5-5-5-3-3-3-3--8--8--8--8-10-10-10-10-|
E-|-3-3-------------------------------3-3-----------------------------------|


chorus:
e-|-----------------|
B-|-----------------|
G-|---------7-5-4-7-|
D-|-5-5-5-5-5-3-2-5-|
A-|-3-3-3-3---------|
E-|-----------------|


Bridge:
e-|---------------------------------|
B-|---------------------------------|
G-|-5-5-5-5-5-5-9-9-7-7-7-7---------|
D-|-5-5-5-5-5-5-9-9-7-7-7-7-7-5-5-5-|
A-|-3-3-3-3-3-3-7-7-5-5-5-5-7-5-5-5-|
E-|-------------------------5-3-3-3-|


outro:
e-|-------------------------
B-|-------------------------
G-|-----7-7-5-10-10-10-10-5-
D-|-5-5-7-7-5-10-10-10-10-5-
A-|-5-5-5-5-3--8--8--8--8-3- x2
E-|-3-3---------------------

e-|---------------------------------|
B-|---------------------------------|
G-|---------7-7-5-5-10-10-5-5-7-7---|
D-|-5-5-5-5-7-7-5-5-10-10-5-5-7-7-5-|
A-|-5-5-5-5-5-5-3-3--8--8-3-3-5-5-5-|
E-|-3-3-3-3-----------------------3-|


transcribed by rambozo
Comments