Pennywise - Change My Mind Chords & Tabs

 

Change My Mind Chords & Tabs

Pennywise Chords & Tabs

Version: 1 Type: Bass Tab 0 ratings
1 star 2 stars 3 stars 4 stars 5 stars
comments

Change My Mind Bass Tab

   
pennywise
change my mind
from the ashes
----------------------------------------------------------------------------
tabber: Wobbler
standart tuning bass
----------------------------------------------------------------------------
i don't have a bass guitar and usually i didn't play...but the bass line of
this song is awesome so i gave my best...PleaZ RATE!


intro 
G|---------------------------------------------------------------|
D|------------------------5---------------------------5----------|
A|---------------3~--5~-2---7777----------------3-5-7----5-7-2---|
E|-guitar-guitar-----------------3333-5555-0000----------------3-|

verse \"every time i talk..."\
G|-------------------------------------------|
D|----------------------------------------5--|
A|-----------------------33333333-5555-22----|
E|-0000-3-333-5555-0-000---------------------|

verse \"you have to be right..."\
G|---------------------------------------------|
D|---------------------------------------------|
A|-7777------------------33333333-5555555-9/10-|
E|------3-333-5555-0-000-----------------------|

chorus \"nooooo...ain't gonna change my mind..."\
G|--------------------------------------------------------------------|
D|--------------------------------------------------------------------|
A|-77-7-9/10-9-7-9------3/5-3-2-3-77-7-9-12-10-9-10-77-7-9-12-10-9-10-|
E|-----------------33-3-----------------------------------------------|

G|---------------------------------------------------------------|
D|---------------------------------------------------------------|
A|-77-7-9/10-9-7-9------3/5-3-2-3-77-7-9-12-10-9-10-77-7-9-5-10--|
E|-----------------33-3------------------------------------------|

verse \"i want you to stop..."\
G|-------------------------------------------|
D|----------------------------------------5--|
A|-7777------------------33333333-5555-22----|
E|------3-333-5555-0-000---------------------|

verse \"wasting all your time..."\
G|---------------------------------------------|
D|---------------------------------------------|
A|-7777------------------33333333-5555555-9/10-|
E|------3-333-5555-0-000-----------------------|

chorus \"nooooo...ain't gonna change my mind..."\
G|--------------------------------------------------------------------|
D|--------------------------------------------------------------------|
A|-77-7-9/10-9-7-9------3/5-3-2-3-77-7-9-12-10-9-10-77-7-9-12-10-9-10-|
E|-----------------33-3-----------------------------------------------|

G|-------------------------------------------------------------------|
D|-------------------------------------------------------------------|
A|-77-7-9/10-9-7-9------3/5-3-2-3-77-7-9-12-10-9-10-77-7-9-5-10-7~~~-|
E|-----------------33-3----------------------------------------------|
[ Tab from: http://www.guitartabs.cc/tabs/p/pennywise/change_my_mind_btab.html ]
fill (not sure)*
G|--------------|
D|--------------|
A|-7-5----------|
E|------7\6\5\3-|

interlude
G|---------------------------------------------------------------------|
D|---------------------------------5---------------------------------5-|
A|----------------------------33-5---7-777777-------------------33-5---|
E|-0-000000-3-333333-5-555555-----------------3-333333-5-555555--------|

bridge \"you try - to deny..."\
G|-------------------------------------------------------------------|
D|--------------------------------5--------------------------------5-|
A|-7---77-5-----------------3-3-5---7---77-5-----------------3-3-5---|
E|---------3---33-3-5---555-----------------3---33-3-5---555---------|

bridge \"you try [you try]..."\ (maybe play only the normal bridge notes,
G|----------------------------------------------| because i'm not sure about
D|--------------------------------------------5-| the sliding notes...)
A|-777-9/10\9-77----9/10\9------9/10\9---33-5---|
E|---------------333------33-555------55--------|

G|----------------------------------------------|
D|--------------------------------------------5-|
A|-777-9/10\9-77----9/10\9------9/10\9---33-5---|
E|---------------333------33-555------55--------|

fill (not sure)*
G|---------------------|
D|---------------------|
A|-7~------3-5-2-2-3-5-|
E|----3~--3-----5------|

verse \"every time i talk..."\
G|-------------------------------------------|
D|----------------------------------------5--|
A|-----------------------33333333-5555-22----|
E|-0000-3-333-5555-0-000---------------------|

verse \"you have to be right..."\
G|---------------------------------------------|
D|---------------------------------------------|
A|-7777------------------33333333-5555555-9/10-|
E|------3-333-5555-0-000-----------------------|

outro \"...mind...ain't gonna change my mind..."\
G|-----------------------------------------------------------------|
D|-----------------------------------------------------------------|
A|-77-7-9/10-9-7-9----7-9/10-9-7-9-33-7-9/10-9-7-9-55-7-9/10-9-7-9-|
E|-----------------55----------------------------------------------|

G|---------------------------------------------------------------------|
D|---------------------------------------------------------------------|
A|----7-9/10-9-7-9-33-7-9/10-9-7-9-55-7-9-12-10-9-10----7-9-12-10-9-10-|
E|-55------------------------------------------------55----------------|

G|---------------------------|
D|---------------------------|
A|-33-7-9-12-10-9-10-555-3-5-|
E|---------------------------|

so thats it...remember i'm not a bass player and tabbed this with e-guitar.
so it isnt 100% but rate!!!

*you'll see the fills aren't exact because thats typical bass stuff... 

e-mail corrections at el_diablo7th@freenet.de
cYa
Comments