Pennywise - Cant Believe It Chords & Tabs

 

Cant Believe It Chords & Tabs

Pennywise Chords & Tabs

Version: 1 Type: Tab 0 ratings
1 star 2 stars 3 stars 4 stars 5 stars
comments

Cant Believe It Tab

BAND: PENNYWISE
ALBUM:STRAIGHT AHEAD
SONG: CAN'T BELIEVE IT
TABBER: VITOR ZERVELIS          alucardrato@yahoo.com.br


INTRO:

|----------------------------------|
|----------------------------------| x2
|---5555-----------5---7-----------|
|77-5555-55-7777-3-5-5-7-7777------|
|77-3333-55-7777-3-3-5-5-7777------|
|55------33-5555-1---3---5555------|

VERSE:

|-----------------------------------------|
|-----------------------------------------| x2
|---5555------------555-------------------|
|77-5555-55-7777-33-555-55--77777---------|
|77-3333-55-7777-33-333-55--77777---------|
|55------33-5555-11-----33--55555---------|

CHORUS:

|-------------------------------------------------------------------------|
|-------------------------------------------------------------------------|
|----------------------------------------------------------------99999999-|
|333-555-77777777--33-3-55-5-77777777--333-555-77777777-55555555-99999999-|
|333-555-77777777--33-3-55-5-77777777--333-555-77777777-55555555-77777777-|
|111-333-55555555--11-1-33-3-55555555--111-333-55555555-33333333----------|
                   ..   ..
INTRO:

|----------------------------------|
|----------------------------------| x2
|---5555-----------5---7-----------|
|77-5555-55-7777-3-5-5-7-7777------|
|77-3333-55-7777-3-3-5-5-7777------|
|55------33-5555-1---3---5555------|

VERSE:

|-----------------------------------------|
|-----------------------------------------| x2
|---5555------------555-------------------|
|77-5555-55-7777-33-555-55--77777---------|
|77-3333-55-7777-33-333-55--77777---------|
|55------33-5555-11-----33--55555---------|

CHORUS:

|-------------------------------------------------------------------------|
|-------------------------------------------------------------------------|
|----------------------------------------------------------------99999999-|
|333-555-77777777--33-3-55-5-77777777--333-555-77777777-55555555-99999999-|
|333-555-77777777--33-3-55-5-77777777--333-555-77777777-55555555-77777777-|
|111-333-55555555--11-1-33-3-55555555--111-333-55555555-33333333----------|
                   ..   ..
INTRO:

|----------------------------------|
|----------------------------------| x2
|---5555-----------5---7-----------|
|77-5555-55-7777-3-5-5-7-7777------|
|77-3333-55-7777-3-3-5-5-7777------|
|55------33-5555-1---3---5555------|

SOLO: HIGH DISTORSION IN THIS PART
[ Tab from: http://www.guitartabs.cc/tabs/p/pennywise/cant_believe_it_tab.html ]
|---------------------------------------------------------------------------------------------------|
|---------------------------------------------------------------------------------1717171717171717--|
|-14141414-16161616-14141414--101010-121212--14141414--16161616-1717171717171717--------------------|
|---------------------------------------------------------------------------------1414141414141414--|
|-12121212-14141414-12121212--8-8-8--101010--12121212--14141414-1515151515151515--------------------|
|---------------------------------------------------------------------------------------------------|

|---------------------------------------------------------------------------------------------------|
|---------------------------------------------------------------------------------------------------|
|1414141414141414-1616161616161616-1414141414141414--10101010-12121212--1414141414141414------------|
|---------------------------------------------------------------------------------------------------|
|1212121212121212-1414141414141414-1212121212121212--8-8-8-8--10101010--1212121212121212------------|
|---------------------------------------------------------------------------------------------------|

|---------------------------------------------------------|
|----------------------------------1717171717171717-------|
|1616161616161616-1717171717171717------------------------|
|----------------------------------1414141414141414-------|
|1414141414141414-1515151515151515------------------------|
|---------------------------------------------------------|

BRIDGE:

|---------------------------------------------------------------------------------------|
|---------------------------------------------------------------------------------------|
|---------------------------------------------------------555555555-99999999------------|
|-77777777-55555555-77777777-33-3-55-5-777777777-55555555-555555555-99999999------------|
|-77777777-55555555-77777777-33-3-55-5-777777777-55555555-333333333-77777777------------|
|-55555555-33333333-55555555-11-1-33-3-555555555-33333333-------------------------------|
   ......   .......  ......  ..   ..    .......   .......


|---------------------------------------------------------------------------------------|
|---------------------------------------------------------------------------------------|
|-------------------------------------------------------555555555-99999999--------------|
|-77777777-55555555-77777777-333-555-777777777-55555555-555555555-99999999--------------|
|-77777777-55555555-77777777-333-555-777777777-55555555-333333333-77777777--------------|
|-55555555-33333333-55555555-111-333-555555555-33333333---------------------------------|

INTRO:

|----------------------------------|
|----------------------------------| x2
|---5555-----------5---7-----------|
|77-5555-55-7777-3-5-5-7-7777------|
|77-3333-55-7777-3-3-5-5-7777------|
|55------33-5555-1---3---5555------|


HAVE FUN!!
Comments