Pennywise - Broken Chords & Tabs

 

Broken Chords & Tabs

Pennywise Chords & Tabs

Version: 3 Type: Bass Tab 0 ratings
1 star 2 stars 3 stars 4 stars 5 stars
comments

Broken Bass Tab

- Pennywise - Broken
- Tabbed by: Pacu, bassist from a brazilian punk rock band called PunkAss.
- The basslines are pretty easy. You just have to listen to the song to get the rhythm right.
__________
Intro [00:04]
G|----------------|----|
D|-----------1818-|----|
A|---------18-----|-1x-|
E|-4~~/16~~-------|----|

G|------------------------------|----|
D|------------------------------|----|
A|-------------76-2-2226-4-4467-|-1x-|
E|-4-44444-4-44-----------------|----|

G|------------------------------|----|
D|------------------------------|----|
A|-------------76-2-2226-4-6-76-|-1x-|
E|-4-44444-4-44-----------------|----|

G|-------------------------|-----|
D|-------------------------|-----|
A|----------------2-227-77-|-2x--|
E|-44xxx44xxx44xxx---------|-----|

Verse [00:25]
G|---------------------------------------|----|
D|---------------------------------------|----|
A|--------------------2-22222224-44-6-7--|-1x-|
E|-4-4444444-4-4444444-------------------|----|

G|---------------------------------------|----|
D|---------------------------------------|----|
A|--------------------2-2222222-4-6-7-6--|-1x-|
E|-4-4444444-4-4444444-------------------|----|

G|---------------------------------------|----|
D|------666-------666--------------------|----|
A|--------------------2-22222224-44-6-7--|-1x-|
E|-4-44------4-44------------------------|----|
[ Tab from: http://www.guitartabs.cc/tabs/p/pennywise/broken_btab_ver_3.html ]
G|---------------------------------------|----|
D|---------------------------------------|----|
A|--------------------2-22222224-4444444-|-1x-|
E|-4-4444444-4-4444444-------------------|----|

Chorus [00:40]
G|--------------------------------------|----|
D|--------------------------------------|----|
A|--------------------2-22222224-666764-|-1x-|
E|-4-4444444-4-4444444------------------|----|

G|--------------------------------------|----|
D|-6-66664--6-644-----------------------|----|
A|--------6------6644-2-22222224-444676-|-1x-|
E|--------------------------------------|----|

G|--------------------------------------|----|
D|--------6-66664-----------------------|----|
A|---------------6/---2-22222224-44-6-7-|-1x-|
E|-4-4444-------------------------------|----|

G|--------------------------------------|----|
D|-6-66664--6-644-----------------------|----|
A|--------6------6644-2-22222224-444676-|-1x-|
E|--------------------------------------|----|

Bridge [00:55]
G|-------------------------|-----|
D|-------------------------|-----|
A|----------------2-227-77-|-2x--|
E|-44xxx44xxx44xxx---------|-----|

Verse  [01:03]
Chorus [01:19]
Bridge [01:34]

Guitar Solo [01:41]
G|---------------------------------------|----|
D|---------------------------------------|----|
A|--------------------2-22222224-4444444-|-4x-|
E|-4-4444444-4-4444444-------------------|----|

Bridge [01:57]
Verse  [02:05]
Chorus [02:20]

Ending [02:35]
G|-------------------------|-----|
D|-------------------------|-----|
A|----------------2-227-77-|-2x--|
E|-44xxx44xxx44xxx---------|-----|

G|---|----|
D|---|----|
A|---|-1x-|
E|-4-|----|
Comments