Pennywise - Broken Chords & Tabs

 

Broken Chords & Tabs

Pennywise Chords & Tabs

Version: 2 Type: Bass Tab 0 ratings
1 star 2 stars 3 stars 4 stars 5 stars
comments

Broken Bass Tab

-----------------------------
broken / pennywise
-----------------------------

tabbed by carlos pino

    intro :fisrt part............intro.2nd part
G]----------------------------------------------------------------------------------------
D]-----------------7-6---------6-4-4-6-7---------------------------------------------
A]-4-4-4-4-4-4------7-7-7----------------------------------------------------6-7--
E]----------------------------------------------4-4-x-x-4-4-x-x-4-4-x-x-7--------
[ Tab from: http://www.guitartabs.cc/tabs/p/pennywise/broken_btab_ver_2.html ]
    verse                       
G]---------------------------------------------------------------------------
D]---------------------------------------------------------------------------
A]-----------------------------------4-4-6-7------------------------------
E]-4-4-4-4-4-4-4-4--7-7-7-7-----------------------------------------

    chorus
G]---------------------------------------------------------------------------
D]---------------------------------------------------------------------------
A]-----------------------------------4-4-4-4------------------------------
E]-4-4-4-4-4-4-4-4--7-7-7-7-----------------------------------------



Comments