Pennywise - Bro Hymn Chords & Tabs

 

Bro Hymn Chords & Tabs

Pennywise Chords & Tabs

Version: 3 Type: Bass Tab 0 ratings
1 star 2 stars 3 stars 4 stars 5 stars
comments

Bro Hymn Bass Tab

Pennywise, Bro Hymn.
 Tabbed by Ian Sosuto, Ian_Sososo@hotmail.com.
  
Sorry dudes, but after seeing those tabs, I JUST HAD TO SUBMIT THE CORRECT ONES:
There are some variations which shouldnt be to hard to figure out by listening to the song
[ Tab from: http://www.guitartabs.cc/tabs/p/pennywise/bro_hymn_btab_ver_3.html ]
Main Riff
G|---------------------------------------------------------------|
D|-0-0-0-0-0-0-0-0-0-0-0-0--3-2----------------------------------|
A|-------------------------------3-3-3-3-3-3-3-3-3-3-3-3-3-3-3-3-|
E|---------------------------------------------------------------|


G|---------------------------------------------------------------|
D|-3-3-3-3-3-3-3-3-----------3-2--0-0-0-0-0-0-0-0-0-0-0-0-0-0-0-0|
A|------------------3-3-3-3--------------------------------------|
E|---------------------------------------------------------------|
 
:: Ultimate Guitar Archive :: 
http://www.ultimate-guitar.com 



Comments