Pennywise - Best I Can Chords & Tabs

 

Best I Can Chords & Tabs

Pennywise Chords & Tabs

Version: 1 Type: Tab 0 ratings
1 star 2 stars 3 stars 4 stars 5 stars
comments

Best I Can Tab

   
pennywise
best i can
the fuse('05)
----------------------------------------------------------------------------
tabber: Wobbler
standart tuning
----------------------------------------------------------------------------
my amplifier is destroyed ;) ,so i can't tab the harmonics...but it should be
easy...the song has many difficult-to-hear parts so may the tab isn't pretty
correct...but try and play...enjoy and rate...!!!

intro (maybe the palm mutes are 00xxxx for 13xxxx...i'm not sure...)
e|---------------------------------------------------------------------|
B|---------------------------------------------------------------------|
G|---------------------------------------------------------------------|
D|-3----3----3---3-----------3----3----3---3-----------3----3----3---3-|
A|-3-33-3-33-3-3-3-harmonics-3-33-3-33-3-3-3-harmonics-3-33-3-33-3-3-3-|
E|-1-11-1-11-1-1-1-----------1-11-1-11-1-1-1-----------1-11-1-11-1-1-1-|
pm   ..   ..   .               ..   ..   .               ..   ..   .

e|------------------------------------|
B|------------------------------------|
G|------------------------------------|
D|-----------3----3----3---3-harmonic-|
A|-harmonics-3-33-3-33-3-3-3-let-ring-|
E|-----------1-11-1-11-1-1-1----------|
pm             ..   ..   .

e|---------------------------------------------------------------------|
B|---------------------------------------------------------------------|
G|---------------------------------------------------------------------|
D|-3----3----3---3-----------3----3----3---3-----------3----3----3---3-|
A|-3----3----3---3-harmonics-3----3----3---3-harmonics-3----3----3---3-|
E|-1-00-1-00-1-0-1-----------1-00-1-00-1-0-1-----------1-00-1-00-1-0-1-|


e|------------------------------------|
B|------------------------------------|
G|------------------------------------|
D|-----------3----3----3---3---pause--|
A|-harmonics-3----3----3---3----------|
E|-----------1-00-1-00-1-0-1----------|

pre-verse
e|------------------------------------------|
B|------------------------------------------|
G|-----------6\5-------5-----------66-8-888-|
D|-333333333-6\5-8-6-5-5-333333333-66-8-888-|
A|-333333333-4\3-8-6-5-3-333333333-44-6-666-|
E|-111111111-----6-4-3---111111111----------|

verse \"I'm headed for the top now..."\
e|-------------------------------------------------------------------|
B|-------------------------------------------------------------------|
G|-----------6\5-------5-----------6\5-------8-----------6\5-------5-|
D|-3-3333333-6\5-8-6-5-5-3-3333333-6\5-8-6-5-8-3-3333333-6\5-8-6-5-5-|
A|-3-3333333-4\3-8-6-5-3-3-3333333-4\3-8-6-5-6-3-3333333-4\3-8-6-5-3-|
E|-1-1111111-----6-4-3---1-1111111-----6-4-3---1-1111111-----6-4-3---|
pm   .......               .......               .......

verse \"unlock the mystery..."\
e|-------------------|
B|-------------------|
G|-6666-8-5555555----|
D|-6666-8-5555555----|
A|-4444-6-3333333///-|
E|-------------------|

verse \"life's too short now......"\
e|-------------------------------------------------------------------|
B|-------------------------------------------------------------------|
G|-----------6\5-------5-----------6\5-------8-----------6\5-------5-|
D|-3-3333333-6\5-8-6-5-5-3-3333333-6\5-8-6-5-8-3-3333333-6\5-8-6-5-5-|
A|-3-3333333-4\3-8-6-5-3-3-3333333-4\3-8-6-5-6-3-3333333-4\3-8-6-5-3-|
E|-1-1111111-----6-4-3---1-1111111-----6-4-3---1-1111111-----6-4-3---|
pm   .......               .......               .......

verse \"i'm gonna live for me..."\
e|-------------------|
B|-------------------|
G|-6666-8-5555555----|
D|-6666-8-5555555----|
A|-4444-6-3333333///-|
E|-------------------|

chorus \"cause i'm doing the best i can..."\
e|----------------------------------------------------------|
B|----------------------------------------------------------|
G|--------------6-5/8--------------6-5/8--------------6-5/8-|
D|-333-6-66-888-6-5/8-333-6-66-888-6-5/8-333-6-66-888-6-5/8-|
A|-333-6-66-888-4-3/6-333-6-66-888-4-3/6-333-6-66-888-4-3/6-|
E|-111-4-44-666-------111-4-44-666-------111-4-44-666-------|

chorus \"as the fire burns inside..."\
e|-------------------|
B|-------------------|
G|-6666-66-555-5---8-|
D|-6666-66-555-5-6-8-|
A|-4444-44-333-3-6-6-|
E|---------------4---|

after chorus 
e|----------------------------------------------------|
B|----------------------------------------------------|
G|----------------------------------------------------|
D|-3----3----3---3-----------3----3----3---3-harmonic-|
A|-3-33-3-33-3-3-3-harmonics-3-33-3-33-3-3-3-let-ring-|
E|-1-11-1-11-1-1-1-----------1-11-1-11-1-1-1----------|
pm   ..   ..   .               ..   ..   .               
[ Tab from: http://www.guitartabs.cc/tabs/p/pennywise/best_i_can_tab.html ]
verse \"the clock is ticking now..."\
e|-------------------------------------------------------------------|
B|-------------------------------------------------------------------|
G|-----------6\5-------5-----------6\5-------8-----------6\5-------5-|
D|-3-3333333-6\5-8-6-5-5-3-3333333-6\5-8-6-5-8-3-3333333-6\5-8-6-5-5-|
A|-3-3333333-4\3-8-6-5-3-3-3333333-4\3-8-6-5-6-3-3333333-4\3-8-6-5-3-|
E|-1-1111111-----6-4-3---1-1111111-----6-4-3---1-1111111-----6-4-3---|
pm   .......               .......               .......

verse \"it's not the end for me..."\
e|-------------------|
B|-------------------|
G|-6666-8-5555555----|
D|-6666-8-5555555----|
A|-4444-6-3333333///-|
E|-------------------|

verse \"it's so hard to be..."\
e|-------------------------------------------------------------------|
B|-------------------------------------------------------------------|
G|-----------6\5-------5-----------6\5-------8-----------6\5-------5-|
D|-3-3333333-6\5-8-6-5-5-3-3333333-6\5-8-6-5-8-3-3333333-6\5-8-6-5-5-|
A|-3-3333333-4\3-8-6-5-3-3-3333333-4\3-8-6-5-6-3-3333333-4\3-8-6-5-3-|
E|-1-1111111-----6-4-3---1-1111111-----6-4-3---1-1111111-----6-4-3---|
pm   .......               .......               .......

verse \"it's just the start for me..."\
e|-------------------|
B|-------------------|
G|-6666-8-5555555----|
D|-6666-8-5555555----|
A|-4444-6-3333333///-|
E|-------------------|

chorus \"cause i'm doing the best i can..."\
e|----------------------------------------------------------|
B|----------------------------------------------------------|
G|--------------6-5/8--------------6-5/8--------------6-5/8-|
D|-333-6-66-888-6-5/8-333-6-66-888-6-5/8-333-6-66-888-6-5/8-|
A|-333-6-66-888-4-3/6-333-6-66-888-4-3/6-333-6-66-888-4-3/6-|
E|-111-4-44-666-------111-4-44-666-------111-4-44-666-------|

chorus \"as the fire burns inside..."\
e|-----------------|
B|-----------------|
G|-6666-66-555555--|
D|-6666-66-555555--|
A|-4444-44-333333--|
E|-----------------|

chorus \"cause i'm doing the best i can..."\
e|----------------------------------------------------------|
B|----------------------------------------------------------|
G|--------------6-5/8--------------6-5/8--------------6-5/8-|
D|-333-6-66-888-6-5/8-333-6-66-888-6-5/8-333-6-66-888-6-5/8-|
A|-333-6-66-888-4-3/6-333-6-66-888-4-3/6-333-6-66-888-4-3/6-|
E|-111-4-44-666-------111-4-44-666-------111-4-44-666-------|

chorus \"as the fire burns inside..."\
e|-------------------|
B|-------------------|
G|-6666-66-555-5---8-|
D|-6666-66-555-5-6-8-|
A|-4444-44-333-3-6-6-|
E|---------------4---|

bridge \"...inside..."\
e|---------------------------------------------------------------------|
B|---------------------------------------------------------------------|
G|------------------6666666------8--------------------6666666-5555---8-|
D|-3333-3-33-3------6666666-6666-8-8-3333-3-33-3------6666666-5555-6-8-|
A|-3333-3-33-3------4444444-6666-6-8-3333-3-33-3------4444444-3333-6-6-|
E|-1111-1-11-1-bass---------4444---6-1111-1-11-1-bass--------------4---|
pm ....   ..                         ....   ..

e|-----------------------------------------------------------------------|
B|-----------------------------------------------------------------------|
G|-------------6666\55-6666666------8---------------6666/88-6666666-5555-|
D|-3333-3-33-3-xxxx-xx-6666666-6666-8-8-3333-3-33-3-xxxx-xx-6666666-5555-|
A|-3333-3-33-3-4444\33-4446444-6666-6-8-3333-3-33-3-4444/66-4444444-3333-|
E|-1111-1-11-1-----------------4444---6-1111-1-11-1----------------------|
pm ....   ..                            ....   ..

e|----------------------------------------------|
B|----------------------------------------------|
G|---8---------------1010101010-----------------|
D|-6-8--333333333333-1010101010-\\\pickslide\\\-|
A|-6-6--333333333333--8-8-8-8-8-----------------|
E|-4----111111111111----------------------------|

chorus \"cause i'm doing the best i can..."\
e|----------------------------------------------------------|
B|----------------------------------------------------------|
G|--------------6-5/8--------------6-5/8--------------6-5/8-|
D|-333-6-66-888-6-5/8-333-6-66-888-6-5/8-333-6-66-888-6-5/8-|
A|-333-6-66-888-4-3/6-333-6-66-888-4-3/6-333-6-66-888-4-3/6-|
E|-111-4-44-666-------111-4-44-666-------111-4-44-666-------|

chorus \"as the fire burns inside..."\
e|-----------------|
B|-----------------|
G|-6666-66-555555--|
D|-6666-66-555555--|
A|-4444-44-333333--|
E|-----------------|

chorus \"cause i'm doing the best i can..."\
e|----------------------------------------------------------|
B|----------------------------------------------------------|
G|--------------6-5/8--------------6-5/8--------------6-5/8-|
D|-333-6-66-888-6-5/8-333-6-66-888-6-5/8-333-6-66-888-6-5/8-|
A|-333-6-66-888-4-3/6-333-6-66-888-4-3/6-333-6-66-888-4-3/6-|
E|-111-4-44-666-------111-4-44-666-------111-4-44-666-------|

chorus \"as the fire burns inside..."\
e|-------------------|
B|-------------------|
G|-6666-66-555-5---8-|
D|-6666-66-555-5-6-8-|
A|-4444-44-333-3-6-6-|
E|---------------4---|

outro
e|-------------------------------|
B|-------------------------------|
G|-----------------6\5-------5---|
D|-3----3----3---3-6\5-8-6-5-5-3-|
A|-3-33-3-33-3-3-3-4\3-8-6-5-3-3-|
E|-1-11-1-11-1-1-1-----6-4-3---1-|
pm   ..   ..   .   ... . . . .

thats it...
comments at el_diablo7th@freenet.de
cYa
Comments