Pennywise - Anyone Listening Chords & Tabs

 

Anyone Listening Chords & Tabs

Pennywise Chords & Tabs

Version: 3 Type: Tab 0 ratings
1 star 2 stars 3 stars 4 stars 5 stars
comments

Anyone Listening Tab

   
I do not know the solo on the begining of the song,
but i know what the 2nd guitar plays the whole song,
here it comes:

 INTRO

e|----------------------------------|
h|----------------------------------|
g|--------10101010----------7-7-7-7-|
d|7-7-7-7-10101010-10101010-7-7-7-7-|
a|7-7-7-7-8-8-8-8--10101010-5-5-5-5-|
e|5-5-5-5----------8-8-8-8----------|

 VERSE pt.1 (far below beneath a burning hot sun, our civility is waking up)
 some parts are not palm muted but they unimportant
e|----------------------------------|
h|----------------------------------|
g|--------10101010----------7-7-7-7-|
d|7-7-7-7-10101010-10101010-7-7-7-7-|
a|7-7-7-7-8-8-8-8--10101010-5-5-5-5-|
e|5-5-5-5----------8-8-8-8----------|
pm. . . . . . . .  . . . .  . . . .

 VERSE pt.2 = INTRO

 PRE CHORUS (You don't have to worry, he's not one of us yeah)
[ Tab from: http://www.guitartabs.cc/tabs/p/pennywise/anyone_listening_tab_ver_3.html ]
e|-----------------------------------|
h|-----------------------------------|
g|-----------------------------------|
d|3-3-3-3-3-3-3-3-5-5-5-5-5-5-5-(5)--|
a|3-3-3-3-3-3-3-3-5-5-5-5-5-5-5-(5)--|
e|1-1-1-1-1-1-1-1-3-3-3-3-3-3-3-(3)--|
                                 * if you want to play this chord
                                   ok, but itīs just a pause
 CHORUS

e|--------------------------|           e|----------------|
h|--------------------------|           h|----------------|
g|--------------------------|           g|7-7-7-7-7-7-7-7-|
d|7-7-7-7-7-7-3-3-3-3-5-5-5-|(4x) then  d|7-7-7-7-7-7-7-7-|
a|7-7-7-7-7-7-3-3-3-3-5-5-5-|           a|5-5-5-5-5-5-5-5-|
e|5-5-5-5-5-5-1-1-1-1-3-3-3-|           e|----------------|
pm. .
  
 play intro + verse + pre chorus + chorus + intro again and then comes
 the INTERLUDE:

e|---------------------------------------------------------------|
h|---------------------------------------------------------------|
g|10-----------7-7-9-9-10-----9-9-7-7-------7-7-9-9-10----12-----|
d|10(16x)7-----7-7-9-9-10(12x)9-9-7-7-7-----7-7-9-9-10(8x)12(8x)-|
a|8------7(12x)5-5-7-7-8------7-7-5-5-7(12x)5-5-7-7-8-----10-----|
e|-------5----------------------------5--------------------------|
                                   e|---|
play chorus and then end on an A5: h|---|
                                   g|---|
                                   d|-7-|
                                   a|-7-| 
                                   e|-5-|
Comments