Pennywise - Anyone Listening Chords & Tabs

 

Anyone Listening Chords & Tabs

Pennywise Chords & Tabs

Version: 2 Type: Tab 0 ratings
1 star 2 stars 3 stars 4 stars 5 stars
comments

Anyone Listening Tab

band: Pennywise
song: Anyone listening
cd: Land of the free?
Tab By:Mike Nickerson Lvhardflip@aol.com
 
I'm prety sure this is how the intro goes:
E|---------------------------------|
B|---------------------------------|
G|-----12-----------------14----|
D|--14---14---12---12--------|
A|---------------------------------|
E|---------------------------------|
play 8 times and jump into the verse
 
the verse is prety easy, heres the chords to play so listen to the song for the rhythm
E|----------------------------|
B|----------------------------|
G|--------10----------------|
D|--7----10---10-----5---|
A|--7-----8----10-----5---|
E|--5-----------8-------3---|
 
Fill:
"You don't have to worry, he's not one of us."
E|----------|
B|----------|
G|----------|
D|--3---5--|
A|--3---5--|
E|--1---3--|
 
chorus:
(listen to song for right rhythm)
E|-----------------|
B|-----------------|
G|--------5-------|
D|---7---5---5---|
A|---7---3---5---|
E|---5--------3---|
 
Fill:
(hold on G and then do a pic slide)
"... This wonderful nightmare, Don't care much you rather kill."
E|-------------------------------------------------------------------|
B|-------------------------------------------------------------------|
G|-------------------------------------------------------------------|
D|-----------------------------5----------(12)pick-slide(5)---|
A|-----------------------------5----------(12)pick-slide(5)---|
E|-----------------------------3----------(12)pick-slide(5)---|
"... This wonderful nightmare, Don't care much you rather kill."
 
Interlude:
E|---------------------|
B|---------------------|
G|---10---9---12---|
D|---10---9---12---|
A|---8-----7---10---|
E|---------------------|
 
 
well thats it. Like i said, listen to the cd for the right rhythm and timing. If any corrections are needed send them to me at Lvhardflip@aol.com
 
Tabed By: MIke NIckerson         Later bro
[ Tab from: http://www.guitartabs.cc/tabs/p/pennywise/anyone_listening_tab_ver_2.html ]
Comments