Pennywise - Alien Chords & Tabs

 

Alien Chords & Tabs

Pennywise Chords & Tabs

Version: 6 Type: Tab 0 ratings
1 star 2 stars 3 stars 4 stars 5 stars
comments

Alien Tab

   
Title:  Alien   
Artist:  Pennywise
Album:  Go Straight Ahead!
tabbed out by mike(Nimrod1311@aol.com)

Intro:  play 4x
E  
:-----------------------------------------------------------------------------
-----------------------I
B  
:-----------10/8------------------10/11---------------------------------------
------------------I
G  :-----------7/5------8 8 
8------7/8-------------------------------------------------------------I
D  :5 5 5--------------8 8 
8------------------------------------------------------------------------I
A  :5 5 5--------------6 6 
6------------------------------------------------------------------------I
E  :3 3 
3-----------------------------------------------------------------------------
----------------I


Verse: play 8x  (pm the first 2x)
E  
:-----------------------------------------------------------------------------
-----------------------I
B  
:-----------------------------------------------------------------------------
-----------------------I
G  :----------7 7 7---8 8 
8------------------------------------------------------------------------I
D  :5 5 5---7 7 7---8 8 8---8 8 
8--------------------------------------------------------------I       
      
                       
A  :5 5 5---5 5 5---6 6 6---8 8 
8--------------------------------------------------------------I
E  :3 3 3------------------------6 6 
6--------------------------------------------------------------I
[ Tab from: http://www.guitartabs.cc/tabs/p/pennywise/alien_tab_ver_6.html ]
Leadin to chorus: 1x
E  
:-----------------------------------------------------------------------------
-----------------------I
B  
:-----------------------------------------------------------------------------
-----------------------I
D  
:-------7-8-7-----------------------------------------------------------------
---------------------I
G  
:--8---7-8-7------------------------------------------------------------------
--------------------I
A  
:--8---5-6-5------------------------------------------------------------------
--------------------I
E  
:--6--------------------------------------------------------------------------
----------------------I

Chorus:  4x  (on 4th time, leave out the G)
E  
:-----------------------------------------------------------------------------
----------------------I
B  
:-----------------------------------------------------------------------------
----------------------I
D  :8 8 8 8--10 10 10 10--7 7 7 
7----------------------------------------------------------I
G  :8 8 8 8--10 10 10 10--7 7 7 7--5 5 5 
5----------------------------------------------I
A  :6 6 6 6-----8  8  8  8---5 5 5 5--5 5 5 
5----------------------------------------------I
E  :-------------------------------------------3 3 3 
3----------------------------------------------I


Solo:  I think it's about 2 times  (hold the last note)
E  
:-3-----3------3-----6---5----6-----------------------------------------------
-----------------I
B  
:----3------3-----------------------6-----------------------------------------
-------------------I
D  
:-----------------------------------------------------------------------------
---------------------I
G  
:-----------------------------------------------------------------------------
--------------------I
A  
:-----------------------------------------------------------------------------
--------------------I
E  
:-----------------------------------------------------------------------------
--------------------I

that's it
e-mail me with any questions or comments
Comments