Pennywise - Alien Chords & Tabs

 

Alien Chords & Tabs

Pennywise Chords & Tabs

Version: 2 Type: Bass Tab 0 ratings
1 star 2 stars 3 stars 4 stars 5 stars
comments

Alien Bass Tab

                                  Alien/Pennywise
                               Album: Straight Ahead

Tabbed by Jonathan St-Pierre

Intro, Bridge:      (x4)
G|---------------------|
D|---------------------|
A|-----------6666-6666-|
E|-3333-3333-----------|

[ Tab from: http://www.guitartabs.cc/tabs/p/pennywise/alien_btab_ver_2.html ]
Verse: (play the 2nd end before a chorus)                /¯¯¯¯¯¯¯¯¯¯¯.1\
G|-----------------|------------------|-----------------|---------------|
D|-----------------|------------------|-----------------|---------------|
A|-----555-666-----|-----555-666--565-|-----555-666-----|-----555-666---|
E|-333---------666-|-333---------6----|-333---------666-|-333---------6-|

  /¯¯¯¯¯¯¯¯¯¯¯¯¯¯.2\
G|------------------|
D|------------------|
A|-----555-666--565-|
E|-333---------6----|


Chorus:
G|-------------------------------------|
D|-------------------------------------|
A|-6-8-5-----6-8-5-----6-8-5-----6-8-5-|
E|-------3---------3---------3---------|


After, play...
  bridge
  verse
  chorus
  bridge
  verse
  bridge
  verse
  chorus
  bridge
and end with E|-3-|

For comments or corrections, e-mail me at jonath01@hotmail.com
Comments