Pennywise - Alien Chords & Tabs

 

Alien Chords & Tabs

Pennywise Chords & Tabs

Version: 1 Type: Bass Tab 0 ratings
1 star 2 stars 3 stars 4 stars 5 stars
comments

Alien Bass Tab

Pennywise- Alien
------------------

tabbed by: 'S.o.H' bert

intro:
G|-------------------------|
D|-------------------------|       x4
A|-------------6-6-6-6-6-6-|
E|-3-3-3-3-3-3-------------|

G|---------------------------------
D|---------------------------------
A|---------5-5-5-5-6-6-6-6---------
E|-3-3-3-3-----------------6-6-6-6-

G|---------------------------------
D|---------------------------------
A|---------5-5-5-5-6-6-6-6---5-6---
E|-3-3-3-3-----------------6-----6-

G|------------------------------------------------------------|
D|------------------------------------------------------------|
A|---------5-5-5-5-6-6-6-6------------------5-5-5-5-6-6-6-6---|
E|-3-3-3-3-----------------6-6-6-6--3-3-3-3-----------------6-|
[ Tab from: http://www.guitartabs.cc/tabs/p/pennywise/alien_btab.html ]
verse 1: first part no bass, second part:
G|---------------------------------
D|---------------------------------
A|---------5-5-5-5-6-6-6-6---------
E|-3-3-3-3-----------------6-6-6-6-

G|--------------------------------
D|--------------------------------
A|---------5-5-5-5-6-6-6-6---5-6--
E|-3-3-3-3-----------------6-----6

G|------------------------------------------------------------|
D|------------------------------------------------------------|
A|---------5-5-5-5-6-6-6-6------------------5-5-5-5-6-6-6-6---|
E|-3-3-3-3-----------------6-6-6-6--3-3-3-3-----------------6-|

chorus:
G|---------------------------------|     
D|---------------------------------|      x3
A|-6-6-6-6-3-3-3-3-5-5-5-5---------|
E|-------------------------3-3-3-3-|

G|----------------------------|
D|----------------------------|
A|-6-6-6-6-3-3-3-3-5-5-5-5--5-|
E|----------------------------|



the same for the rest of the song, while the guitar solo
just play the second part of the intro.

this is it, hope you enjoy it

e-mail: bertdedecker1@hotmail.com





Comments