Pennywise - 6th Avenue Nightmare Chords & Tabs

 

6th Avenue Nightmare Chords & Tabs

Pennywise Chords & Tabs

Version: 1 Type: Tab 0 ratings
1 star 2 stars 3 stars 4 stars 5 stars
comments

6th Avenue Nightmare Tab

   
pennywise
6th avenue nightmare
the fuse('05)
----------------------------------------------------------------------------
tabber: Wobbler
standart tuning
----------------------------------------------------------------------------
there are more than two guitars but i tabbed only the lead and rythm parts

intro lead
e|----------------------------------------------------------------------|
B|----------------------------------------------------------------------|
G|-88-6/7/9-11111111-1010-88-6/7/9-11111111-1010-88-6/7/9-11111111-1010-|
D|-xx-x-x-x--x-x-x-x--x-x-xx-x-x-x--x-x-x-x--x-x-xx-x-x-x--x-x-x-x--x-x-|
A|-66-4/5/7--9-9-9-9--8-8-66-4/5/7--9-9-9-9--8-8-66-4/5/7--9-9-9-9--8-8-|
E|----------------------------------------------------------------------|

intro rythm
e|----------------------------------------------------------------------|
B|----------------------------------------------------------------------|
G|-------7-77--------9----------7-77--------99---------7-77--------9----|
D|-4-44--7-77--7-777-9-9--4-44--7-77--7-777-999--4-44--7-77--7-777-9-9--|
A|-4-44--5-55--7-777-7-9--4-44--5-55--7-777-779--4-44--5-55--7-777-7-9--|
E|-2-22--------5-555---7--2-22--------5-555---7--2-22--------5-555---7--|
pm                                          ..

intro lead
e|------------------------|
B|------------------------|
G|-88-6-3/4-11111111/1313-|
D|-xx-x-x-x--x-x-x-x--x-x-|
A|-66-4-1/2--9-9-9-9/1111-|
E|------------------------|

intro rythm
e|------------------------|
B|------------------------|
G|-------7-77-------------|
D|-4-44--7-77--7-777------|
A|-4-44--5-55--7-777-9----|
E|-2-22--------5-555-7///-|

verse lead + rythm \"this is no way to live a life..."\
e|--------------------------------------------------------------|
B|--------------------------------------------------------------|
G|-----------7--------------------7---9-99-----------7----------|
D|-44-4-44-4-7-7-2-22-2-44-4-44-4-7-7-9-99-44-4-44-4-7-7-2-22-2-|
A|-44-4-44-4-5-7-2-22-2-44-4-44-4-5-7-7-77-44-4-44-4-5-7-2-22-2-|
E|-22-2-22-2---5-0-00(0)22-2-22-2---5------22-2-22-2---5-0-00(0)|

verse end lead + rythm \"they don't care if we live or die..."\
e|--------------------|
B|--------------------|
G|-----------7---9-99-|
D|-44-4-44-4-7-7-9-99-|
A|-44-4-44-4-5-7-7-77-|
E|-22-2-22-2---5------|

pre-chorus lead \"it's not fair when you start with nothing..."\
e|---------------------------------------|
B|---------------------------------------|
G|-6-6-6-7-9-7--6-6-6-7-9-7--6-6-6-7-9-7-|
D|-6-6-6-7-9-7--6-6-6-7-9-7--6-6-6-7-9-7-|
A|-4-4-4-5-7-5--4-4-4-5-7-5--4-4-4-5-7-5-|
E|---------------------------------------|

pre-chorus rythm \"it's not fair when you start with nothing..."\
e|---------------------------------------|
B|---------------------------------------|
G|-6-6-6-7-9-7--6-6-6--------6-6-6-7-9-7-|
D|-6-6-6-7-9-7--6-6-6-7-9-9--6-6-6-7-9-7-|
A|-4-4-4-5-7-5--4-4-4-7-9-9--4-4-4-5-7-5-|
E|--------------------5-7-7--------------|

chorus lead \"6th avenue nightmare...and our fate is set..."\
e|-------------------------------------------------------------------|
B|-------------------------------------------------------------------|
G|---------77-7-77---------6/77-6-----------77-7-77---------6-77-6-7-|
D|-44-4-44-77-7-77-99--9-9-6/77-6-7-44-4-44-77-7-77-99-9-99-6-77-6-7-|
A|-44-4-44-55-5-55-xx--x-x-4/55-4-7-44-4-44-55-5-55-99-9-99-4-55-4-5-|
E|-22-2-22---------77--7-7--------5-22-2-22---------77-7-77----------|

chorus rythm \"6th avenue nightmare...and our fate is set..."\
e|-------------------------------------------------------------------|
B|-------------------------------------------------------------------|
G|---------77-7-77---------6/77-6-----------77-7-77---------6-77-6-7-|
D|-44-4-44-77-7-77-99-9-99-6/77-6-7-44-4-44-77-7-77-99-9-99-6-77-6-7-|
A|-44-4-44-55-5-55-99-9-99-4/55-4-7-44-4-44-55-5-55-99-9-99-4-55-4-5-|
E|-22-2-22---------77-7-77--------5-22-2-22---------77-7-77----------|

pre-verse lead
e|----------------------------------------------------------------------|
B|----------------------------------------------------------------------|
G|-88-6/7/9-11111111-1010-88-6/7/9-11111111-1010-88-6/7/9-11111111-1010-|
D|-xx-x-x-x--x-x-x-x--x-x-xx-x-x-x--x-x-x-x--x-x-xx-x-x-x--x-x-x-x--x-x-|
A|-66-4/5/7--9-9-9-9--8-8-66-4/5/7--9-9-9-9--8-8-66-4/5/7--9-9-9-9--8-8-|
E|----------------------------------------------------------------------|

pre-verse rythm
e|----------------------------------------------------------------------|
B|----------------------------------------------------------------------|
G|-------7-77--------9----------7-77--------99---------7-77--------9----|
D|-4-44--7-77--7-777-9-9--4-44--7-77--7-777-999--4-44--7-77--7-777-9-9--|
A|-4-44--5-55--7-777-7-9--4-44--5-55--7-777-779--4-44--5-55--7-777-7-9--|
E|-2-22--------5-555---7--2-22--------5-555---7--2-22--------5-555---7--|
pm                                          ..

pre-verse lead
e|------------------------|
B|------------------------|
G|-88-6-3/4-11111111/1313-|
D|-xx-x-x-x--x-x-x-x--x-x-|
A|-66-4-1/2--9-9-9-9/1111-|
E|------------------------|

pre-verse rythm
e|------------------------|
B|------------------------|
G|-------7-77-------------|
D|-4-44--7-77--7-777------|
A|-4-44--5-55--7-777-9----|
E|-2-22--------5-555-7///-|

verse lead + rythm \"another day living in hell..."\
e|--------------------------------------------------------------|
B|--------------------------------------------------------------|
G|-----------7--------------------7---9-99-----------7----------|
D|-44-4-44-4-7-7-2-22-2-44-4-44-4-7-7-9-99-44-4-44-4-7-7-2-22-2-|
A|-44-4-44-4-5-7-2-22-2-44-4-44-4-5-7-7-77-44-4-44-4-5-7-2-22-2-|
E|-22-2-22-2---5-0-00(0)22-2-22-2---5------22-2-22-2---5-0-00(0)|

verse end lead + rythm \"the cycle will repeat itself..."\
e|--------------------|
B|--------------------|
G|-----------7---9-99-|
D|-44-4-44-4-7-7-9-99-|
A|-44-4-44-4-5-7-7-77-|
E|-22-2-22-2---5------|

pre-chorus lead \"it's not fair when you start with nothing..."\
e|---------------------------------------|
B|---------------------------------------|
G|-6-6-6-7-9-7--6-6-6-7-9-7--6-6-6-7-9-7-|
D|-6-6-6-7-9-7--6-6-6-7-9-7--6-6-6-7-9-7-|
A|-4-4-4-5-7-5--4-4-4-5-7-5--4-4-4-5-7-5-|
E|---------------------------------------|

pre-chorus rythm \"it's not fair when you start with nothing..."\
e|---------------------------------------|
B|---------------------------------------|
G|-6-6-6-7-9-7--6-6-6--------6-6-6-7-9-7-|
D|-6-6-6-7-9-7--6-6-6-7-9-9--6-6-6-7-9-7-|
A|-4-4-4-5-7-5--4-4-4-7-9-9--4-4-4-5-7-5-|
E|--------------------5-7-7--------------|

chorus lead \"6th avenue nightmare...and our fate is set..."\
e|---------------------------------------------------------------------|
B|---------------------------------------------------------------------|
G|---------77-7-77---------6/77-6-----------77-7-77---------6-77-6-7---|
D|-44-4-44-77-7-77-99--9-9-6/77-6-7-44-4-44-77-7-77-99-9-99-6-77-6-7-7-|
A|-44-4-44-55-5-55-xx--x-x-4/55-4-7-44-4-44-55-5-55-99-9-99-4-55-4-5-7-|
E|-22-2-22---------77--7-7--------5-22-2-22---------77-7-77----------5-|

chorus rythm \"6th avenue nightmare...and our fate is set..."\
e|---------------------------------------------------------------------|
B|---------------------------------------------------------------------|
G|---------77-7-77---------6/77-6-----------77-7-77---------6-77-6-7---|
D|-44-4-44-77-7-77-99-9-99-6/77-6-7-44-4-44-77-7-77-99-9-99-6-77-6-7-7-|
A|-44-4-44-55-5-55-99-9-99-4/55-4-7-44-4-44-55-5-55-99-9-99-4-55-4-5-7-|
E|-22-2-22---------77-7-77--------5-22-2-22---------77-7-77----------5-|

chorus lead \"6th avenue nightmare...and our fate is set..."\
e|-------------------------------------------------------------------|
B|-------------------------------------------------------------------|
G|---------77-7-77---------6/77-6-----------77-7-77---------6-77-6-7-|
D|-44-4-44-77-7-77-99--9-9-6/77-6-7-44-4-44-77-7-77-99-9-99-6-77-6-7-|
A|-44-4-44-55-5-55-xx--x-x-4/55-4-7-44-4-44-55-5-55-99-9-99-4-55-4-5-|
E|-22-2-22---------77--7-7--------5-22-2-22---------77-7-77----------|
[ Tab from: http://www.guitartabs.cc/tabs/p/pennywise/6th_avenue_nightmare_tab.html ]
chorus rythm \"6th avenue nightmare...and our fate is set..."\
e|-------------------------------------------------------------------|
B|-------------------------------------------------------------------|
G|---------77-7-77---------6/77-6-----------77-7-77---------6-77-6-7-|
D|-44-4-44-77-7-77-99-9-99-6/77-6-7-44-4-44-77-7-77-99-9-99-6-77-6-7-|
A|-44-4-44-55-5-55-99-9-99-4/55-4-7-44-4-44-55-5-55-99-9-99-4-55-4-5-|
E|-22-2-22---------77-7-77--------5-22-2-22---------77-7-77----------|

bridge lead
e|----------------------------------------------------------------------|
B|----------------------------------------------------------------------|
G|-88-6/7/9-11111111-1010-88-6/7/9-11111111-1010-88-6/7/9-11111111-1010-|
D|-xx-x-x-x--x-x-x-x--x-x-xx-x-x-x--x-x-x-x--x-x-xx-x-x-x--x-x-x-x--x-x-|
A|-66-4/5/7--9-9-9-9--8-8-66-4/5/7--9-9-9-9--8-8-66-4/5/7--9-9-9-9--8-8-|
E|----------------------------------------------------------------------|

bridge rythm
e|----------------------------------------------------------------------|
B|----------------------------------------------------------------------|
G|-------7-77--------9----------7-77--------99---------7-77--------9----|
D|-4-44--7-77--7-777-9-9--4-44--7-77--7-777-999--4-44--7-77--7-777-9-9--|
A|-4-44--5-55--7-777-7-9--4-44--5-55--7-777-779--4-44--5-55--7-777-7-9--|
E|-2-22--------5-555---7--2-22--------5-555---7--2-22--------5-555---7--|
pm                                          ..

bridge lead
e|-------------------------|
B|-------------------------|
G|-88-6-3/4-11111111\10--8~|
D|-xx-x-x-x--x-x-x-x--x--x~|
A|-66-4-1/2--9-9-9-9\-8--6~|
E|-------------------------|

bridge rythm
e|-----------------------*-|  
B|-----------------------*-|  
G|-------7-77------------*-|    
D|-4-44--7-77--7-777-----*-|  
A|-4-44--5-55--7-777-9---*-|  
E|-2-22--------5-555-7//-*-|  
                         \___ = interlude begins
interlude lead \"...this is what you get..."\
e|------------------------------------------------------------------------|
B|------------------------------------------------------------------------|
G|-(8)~~~~~~~----------------------8~~~~~~~~------------------------------|
D|-(x)-----------------------------x------------------------------------2-|
A|-(6)~~~~~~~----------------------6~~~~~~~~----------------------------2-|
E|----------------------------------------------------------------------0-|

interlude rythm \"...this is what you get..."\
e|------------------------------------------------------------------------|
B|------------------------------------------------------------------------|
G|-----77777------9------77777-------------77777------9------77777--------|
D|-444-77777-7777-99-444-77777-7777-97-444-77777-7777-99-444-77777-7777-2-|
A|-444-55555-7777-79-444-55555-7777-97-444-55555-7777-79-444-55555-7777-2-|
E|-222-------5555--7-222-------5555-75-222-------5555--7-222-------5555-0-|
pm ... ..... ....    ... ..... ....    ... ..... ....    ... ..... ....

solo (improvise some...i didn't get it)

solo rythm
e|----------------------------------------------------------------------|
B|----------------------------------------------------------------------|
G|-------7-77--------9----------7-77--------9----------7-77--------9----|
D|-4-44--7-77--7-777-9-9--4-44--7-77--7-777-9-9--4-44--7-77--7-777-9-9--|
A|-4-44--5-55--7-777-7-9--4-44--5-55--7-777-7-9--4-44--5-55--7-777-7-9--|
E|-2-22--------5-555---7--2-22--------5-555---7--2-22--------5-555---7--|

solo rythm
e|------------------------|
B|------------------------|
G|-------7-77-------------|
D|-4-44--7-77--7-777------|
A|-4-44--5-55--7-777-9----|
E|-2-22--------5-555-7///-|

verse lead + rythm \"this is no way to live a life..."\
e|--------------------------------------------------------------|
B|--------------------------------------------------------------|
G|-----------7--------------------7---9-99-----------7----------|
D|-44-4-44-4-7-7-2-22-2-44-4-44-4-7-7-9-99-44-4-44-4-7-7-2-22-2-|
A|-44-4-44-4-5-7-2-22-2-44-4-44-4-5-7-7-77-44-4-44-4-5-7-2-22-2-|
E|-22-2-22-2---5-0-00(0)22-2-22-2---5------22-2-22-2---5-0-00(0)|

verse end lead + rythm \"they don't care if we live or die..."\
e|--------------------|
B|--------------------|
G|-----------7---9-99-|
D|-44-4-44-4-7-7-9-99-|
A|-44-4-44-4-5-7-7-77-|
E|-22-2-22-2---5------|

pre-chorus lead \"it's not fair when you start with nothing..."\
e|---------------------------------------|
B|---------------------------------------|
G|-6-6-6-7-9-7--6-6-6-7-9-7--6-6-6-7-9-7-|
D|-6-6-6-7-9-7--6-6-6-7-9-7--6-6-6-7-9-7-|
A|-4-4-4-5-7-5--4-4-4-5-7-5--4-4-4-5-7-5-|
E|---------------------------------------|

pre-chorus rythm \"it's not fair when you start with nothing..."\
e|---------------------------------------|
B|---------------------------------------|
G|-6-6-6-7-9-7--6-6-6--------6-6-6-7-9-7-|
D|-6-6-6-7-9-7--6-6-6-7-9-9--6-6-6-7-9-7-|
A|-4-4-4-5-7-5--4-4-4-7-9-9--4-4-4-5-7-5-|
E|--------------------5-7-7--------------|

chorus lead \"6th avenue nightmare...and our fate is set..."\
e|---------------------------------------------------------------------|
B|---------------------------------------------------------------------|
G|---------77-7-77---------6/77-6-----------77-7-77---------6-77-6-7---|
D|-44-4-44-77-7-77-99--9-9-6/77-6-7-44-4-44-77-7-77-99-9-99-6-77-6-7-7-|
A|-44-4-44-55-5-55-xx--x-x-4/55-4-7-44-4-44-55-5-55-99-9-99-4-55-4-5-7-|
E|-22-2-22---------77--7-7--------5-22-2-22---------77-7-77----------5-|

chorus rythm \"6th avenue nightmare...and our fate is set..."\
e|---------------------------------------------------------------------|
B|---------------------------------------------------------------------|
G|---------77-7-77---------6/77-6-----------77-7-77---------6-77-6-7---|
D|-44-4-44-77-7-77-99-9-99-6/77-6-7-44-4-44-77-7-77-99-9-99-6-77-6-7-7-|
A|-44-4-44-55-5-55-99-9-99-4/55-4-7-44-4-44-55-5-55-99-9-99-4-55-4-5-7-|
E|-22-2-22---------77-7-77--------5-22-2-22---------77-7-77----------5-|

chorus lead \"6th avenue nightmare...and our fate is set..."\
e|-------------------------------------------------------------------|
B|-------------------------------------------------------------------|
G|---------77-7-77---------6/77-6-----------77-7-77---------6-77-6-7-|
D|-44-4-44-77-7-77-99--9-9-6/77-6-7-44-4-44-77-7-77-99-9-99-6-77-6-7-|
A|-44-4-44-55-5-55-xx--x-x-4/55-4-7-44-4-44-55-5-55-99-9-99-4-55-4-5-|
E|-22-2-22---------77--7-7--------5-22-2-22---------77-7-77----------|

chorus rythm \"6th avenue nightmare...and our fate is set..."\
e|-------------------------------------------------------------------|
B|-------------------------------------------------------------------|
G|---------77-7-77---------6/77-6-----------77-7-77---------6-77-6-7-|
D|-44-4-44-77-7-77-99-9-99-6/77-6-7-44-4-44-77-7-77-99-9-99-6-77-6-7-|
A|-44-4-44-55-5-55-99-9-99-4/55-4-7-44-4-44-55-5-55-99-9-99-4-55-4-5-|
E|-22-2-22---------77-7-77--------5-22-2-22---------77-7-77----------|

outro lead
e|----------------------------------------------------------------------|
B|----------------------------------------------------------------------|
G|-88-6/7/9-11111111-1010-88-6/7/9-11111111-1010-88-6/7/9-11111111-1010-|
D|-xx-x-x-x--x-x-x-x--x-x-xx-x-x-x--x-x-x-x--x-x-xx-x-x-x--x-x-x-x--x-x-|
A|-66-4/5/7--9-9-9-9--8-8-66-4/5/7--9-9-9-9--8-8-66-4/5/7--9-9-9-9--8-8-|
E|----------------------------------------------------------------------|

outro rythm
e|----------------------------------------------------------------------|
B|----------------------------------------------------------------------|
G|-------7-77--------9----------7-77--------99---------7-77--------9----|
D|-4-44--7-77--7-777-9-9--4-44--7-77--7-777-999--4-44--7-77--7-777-9-9--|
A|-4-44--5-55--7-777-7-9--4-44--5-55--7-777-779--4-44--5-55--7-777-7-9--|
E|-2-22--------5-555---7--2-22--------5-555---7--2-22--------5-555---7--|
pm                                          ..

outro lead \"...this is what you get."\
e|---------------------------|
B|---------------------------|
G|-88-6-3/4-11111111-10----8-|
D|-xx-x-x-x--x-x-x-x--x----x-|
A|-66-4-1/2--9-9-9-9--8----6-|
E|---------------------------|

outro rythm \"...this is what you get."\
e|---------------------------|
B|---------------------------|
G|-------7-77----------------|
D|-4-44--7-77--7-777-99-77-4-|
A|-4-44--5-55--7-777-99-77-4-|
E|-2-22--------5-555-77-55-2-|

thats it
comments at el_diablo7th@freenet.de
hf
cheerz
Comments