Pennywise - 18 Soldiers Chords & Tabs

 

18 Soldiers Chords & Tabs

Pennywise Chords & Tabs

Version: 1 Type: Tab 0 ratings
1 star 2 stars 3 stars 4 stars 5 stars
comments

18 Soldiers Tab

   
pennywise
18 soldiers
the fuse (05)
----------------------------------------------------------------------------
tabber: Wobbler
standart tuning
----------------------------------------------------------------------------
intro
e|---------------------------------------------------------------------|
B|---------------------------------------------------------------------|
G|-9-9-9-9-9-9-9-9-9-9-9-9------55-5-9-9-9-9-9-9-9-9-9-9-9-9------55-5-|
D|-7-7-7-7-7-7-7-7-7-7-7-7-55-5-55-5-7-7-7-7-7-7-7-7-7-7-7-7-55-5-55-5-|
A|-------------------------55-5-33-3-------------------------55-5-33-3-|
E|-------------------------33-3------------------------------33-3------|

verse \"18 soldiers five days away..."\
e|-------------------------------------------------------------|
B|-------------------------------------------------------------|
G|--------------------------55-5--------------------------55-5-|
D|-777777777777-777777-55-5-55-5-777777777777-777777-55-5-55-5-|
A|-777777777777-777777-55-5-33-3-777777777777-777777-55-5-33-3-|
E|-555555555555-555555-33-3------555555555555-555555-33-3------|

pre-chorus
e|-----------------------------------------------|
B|-----------------------------------------------|
G|-----------------------------------------------|
D|-----------7-777-10/1212-----------5-555-------|
A|------3-55--------------------3-55-------7-5-3-|
E|-5-55--------------------5-55------------------|

chorus \"we got nothing but time..."\
e|-----------------------------------------------------------------|
B|-----------------------------------------------------------------|
G|--------5-55-555------------------------5-55-555-9-9-999-9-9-999-|
D|-77-777-5-55-555-55-555-7-77-777-33-333-5-55-555-9-9-999-9-9-999-|
A|-77-777-3-33-333-55-555-7-77-777-33-333-3-33-333-7-7-777-7-7-777-|
E|-55-555----------33-333-5-55-555-11-111--------------------------|

pre-verse
e|---------------------------------------------------------------------|
B|---------------------------------------------------------------------|
G|-9-9-9-9-9-9-9-9-9-9-9-9------55-5-9-9-9-9-9-9-9-9-9-9-9-9------55-5-|
D|-7-7-7-7-7-7-7-7-7-7-7-7-55-5-55-5-7-7-7-7-7-7-7-7-7-7-7-7-55-5-55-5-|
A|-------------------------55-5-33-3-------------------------55-5-33-3-|
E|-------------------------33-3------------------------------33-3------|

verse \"18 fathers visit the graves..."\
e|-------------------------------------------------------------|
B|-------------------------------------------------------------|
G|--------------------------55-5--------------------------55-5-|
D|-777777777777-777777-55-5-55-5-777777777777-777777-55-5-55-5-|
A|-777777777777-777777-55-5-33-3-777777777777-777777-55-5-33-3-|
E|-555555555555-555555-33-3------555555555555-555555-33-3------|

pre-chorus
e|-----------------------------------------------------------------------|
B|-----------------------------------------------------------------------|
G|-----------------------------------------------------------------------|
D|-----------7-777-10/1212-----------5-555-----------------7-777-10/1212-|
A|------3-55--------------------3-55-------7-5-3------3-55---------------|
E|-5-55--------------------5-55------------------5-55--------------------|

e|-----------------------|
B|-----------------------|
G|-----------------------|
D|-----------5-555-------|
A|------3-55-------7-5-3-|
E|-5-55------------------|
[ Tab from: http://www.guitartabs.cc/tabs/p/pennywise/18_soldiers_tab.html ]
chorus \"we got nothing but time..."\
e|-----------------------------------------------------------------|
B|-----------------------------------------------------------------|
G|--------5-55-555------------------------5-55-555-9-9-999-9-9-9---|
D|-77-777-5-55-555-55-555-7-77-777-33-333-5-55-555-9-9-999-9-9-9---|
A|-77-777-3-33-333-55-555-7-77-777-33-333-3-33-333-7-7-777-7-7-7\\-|
E|-55-555----------33-333-5-55-555-11-111--------------------------|

chorus \"retaliation is blind..."\
e|--------------------------------------------------------------|
B|--------------------------------------------------------------|
G|--------5-55-555------------------------5-55-555-9-9-999-9-9--|
D|-77-777-5-55-555-55-555-7-77-777-33-333-5-55-555-9-9-999-9-9--|
A|-77-777-3-33-333-55-555-7-77-777-33-333-3-33-333-7-7-777-7-7\-|
E|-55-555----------33-333-5-55-555-11-111-----------------------|

solo rythm (the solo is very great but i can't tab it)
e|-------------------------------------------------------------------------|
B|-------------------------------------------------------------------------|
G|-----5-44444-7-55555-/1212-14------------5-44444-7-55555-/1212-14--------|
D|-77775-44444-7-55555-/1212-14-555555-77775-44444-7-55555-/1212-14-555555-|
A|-77773-22222-5-33333-/1010-12-555555-77773-22222-5-33333-/1010-12-555555-|
E|-5555-------------------------333333/5555-------------------------333333/|
pm                              .....                               .....

e|------------------------------------------------------------------|
B|------------------------------------------------------------------|
G|-----5-44444-7-55555-/1212-14------------5-44444-7-55555-/1212-14-|
D|-777-5-44444-7-55555-/1212-14-555555-777-5-44444-7-55555-/1212-14-|
A|-777-3-22222-5-33333-/1010-12-555555-777-3-22222-5-33333-/1010-12-|
E|-555--------------------------333333/555--------------------------|
pm                              .....                               

e|-----------------|
B|-----------------|
G|-----------------|
D|-\\\pickslide\\\-|
A|-----------------|
E|-----------------|

pre-verse
e|---------------------------------------------------------------------|
B|---------------------------------------------------------------------|
G|-9-9-9-9-9-9-9-9-9-9-9-9------55-5-9-9-9-9-9-9-9-9-9-9-9-9------55-5-|
D|-7-7-7-7-7-7-7-7-7-7-7-7-55-5-55-5-7-7-7-7-7-7-7-7-7-7-7-7-55-5-55-5-|
A|-------------------------55-5-33-3-------------------------55-5-33-3-|
E|-------------------------33-3------------------------------33-3------|

verse \"18 soldiers five days away..."\
e|-------------------------------------------------------------|
B|-------------------------------------------------------------|
G|--------------------------55-5--------------------------55-5-|
D|-777777777777-777777-55-5-55-5-777777777777-777777-55-5-55-5-|
A|-777777777777-777777-55-5-33-3-777777777777-777777-55-5-33-3-|
E|-555555555555-555555-33-3------555555555555-555555-33-3------|

chorus \"we got nothing but time..."\
e|-----------------------------------------------------------------|
B|-----------------------------------------------------------------|
G|--------5-55-555------------------------5-55-555-9-9-999-9-9-9---|
D|-77-777-5-55-555-55-555-7-77-777-33-333-5-55-555-9-9-999-9-9-9---|
A|-77-777-3-33-333-55-555-7-77-777-33-333-3-33-333-7-7-777-7-7-7\\-|
E|-55-555----------33-333-5-55-555-11-111--------------------------|

chorus \"we got nothing but time..."\
e|---------------------------------------------------------------|
B|---------------------------------------------------------------|
G|--------5-55-555------------------------5-55-555-9-9-999-9-9---|
D|-77-777-5-55-555-55-555-7-77-777-33-333-5-55-555-9-9-999-9-9---|
A|-77-777-3-33-333-55-555-7-77-777-33-333-3-33-333-7-7-777-7-7\\-|
E|-55-555----------33-333-5-55-555-11-111------------------------|

outro
e|---------------------------------------|
B|---------------------------------------|
G|---------------------------------------|
D|-7------5/7------5/7------5/7------5-7-|
A|-7------5/7------5/7------5/7------5-7-|
E|-5-bass-3/5-bass-3/5-bass-3/5-bass-3-5-|

thats it!

comments at el_diablo7th@freenet.de
cYa!
Comments