Penny Dai - Ni Yao De Ai Chords & Tabs

 

Ni Yao De Ai Chords & Tabs

Penny Dai Chords & Tabs

Version: 1 Type: Tab 0 ratings
1 star 2 stars 3 stars 4 stars 5 stars
comments

Ni Yao De Ai Tab

   
____________________________________________________________________________
****************************************************************************
Title: Ni Yao De Ai (The Love You Want)
Artist: Penny Dai
Tabbed by: Reynaldo R. Ramos
e-mail: rey_rrr20@yahoo.com
Tuning: Standard Tuning Let Ring Throughout
Date: January 28, 2004
____________________________________________________________________________
****************************************************************************

This is very accurate i'm sure of it, complete version both guitar are being
transcribed and this is for all meteor garden fanatic!!! comments, reactions,
suggestions,questions and modifications are welcome just drop an email!!! This
Ni Yao De Ai is the meteor garden ending song and plzz send me the tagalog
version lyrics of this!!plz... rate this tab for sake of effort!!! GO!GO!GO!GO!
GO! Filipino 


Intro: F--A--Dm--Cm7--Bb--A-Dm-G--C--

Guitar 1:

e|--1-----------------------5------------------------------|
B|--1-------------5---------6-------------4----------------|
G|--2---------6-------6-----7---------3-------3------------|
D|--3-------7---7---7---7---7-------5---5---5--------------|
A|--3-----------------------5-----3------------------------|
E|--1---1s5------------------------------------------------|

e|------------0--1----1------------------------------------------|
B|--3------------3-----------0----3---0----------5h3-5-----------|
G|--3-------0----2--2----------0--------------5--5---5-----------|
D|--3------------0---------3-----------------5---5---5--------3/-|
A|--1----0--------------------------------3------3------3-3s5----|
E|-----------------------3---------------------------------------|

Verse 1: F--A--Dm--Cm7--Bb--A-Dm-G--C--

Guitar 1:

e|-----------------------0------------------------1----------------------|
B|----------1----------------2---2h3h2--------3-------3-----------4------|
G|------2-------2------2---2---2-------2----2---2---2---2-----3-------3--|
D|----3---3---3---3-----------------------0-----------------5---5---5---5|
A|-------------------0------------------------------------3--------------|
E|--1--------------------------------------------------------------------|

e|---------------------0---1--------------------------------------------|
B|-----------3---------2---3---------1-2-3---0----------5h6-5-----------|
G|-------3-------3-----2---2------0--0-0-0-0---0------5-5---5-----------|
D|-----3---3---3---3---2---0----0-------------------5---5---5-------3/--|
A|---1-----------------0--------------------------3-----3-----3-3s5-----|
E|-----------------------------3---------3------------------------------|


Chorus 1:

Guitar 1: F--A--Bb--G--
          F--A--Bb--G--Bbm--

e|--1-------0----------------------------------------------|
B|--1-------2---------3---3h4h3----------------------------|
G|--2-------2-------------------3--------------0-----------|
D|--3-------2-------3---3------------------3-------3-------|
A|--3-------0-----1---------------1------2---2---2---2-----|
E|--1-------------------------------1--3-------------------|

e|------------------------------5--------------------------|
B|--------------1-----------5-----5--------------6---------|
G|------2h3h2-------2---------6-----6--------7-------7-----|
D|----3-------3---3---3---7-----------7--------8---8-------|
A|-----------------------------------------8-----------8---|
E|--1-------------------5---------------6------------------|

e|-------------------1--------|
B|----------0--------2--------|
G|-------------------3--------|
D|------3-------3----3--------|
A|----2---2---2------1--------|
E|--3-------------1-----------|

Guitar 2: F--A--Bb--G--
          F--A--Bb--G--Bbm--
e|------------------------------------------------------1---1---1---|
B|--1---1---1---1---2---2---2---2---3---3---3---3-----0---0---0---0-|
G|--------------------------------------------------0---------------|
D|----3---3---3---3---2---2---2---2---3---3---3---3-----------------|
A|------------------------------------------------------------------|
E|------------------------------------------------------------------|

e|------------------------------------------------------1---1---1----1--|
B|--1---1---1---1---2---2---2---2---3---3---3---3-----0---0---0---0--2--|
G|--------------------------------------------------0----------------3--|
D|----3---3---3---3---2---2---2---2---3---3---3---3------------------3--|
A|-------------------------------------------------------------------1--|
E|----------------------------------------------------------------------|

Interlude:  F--A--Bb--G-C-

Guitar 1:
e|---------------------------0-----------------------1---------|
B|----------1------------2-------2h3h2-----------3-------3-----|
G|------2-------2------2---2---2-------2-------3---3---3---3---|
D|----3---3---3---3----------------------2---------------------|
A|-------------------0----------------------1------------------|
E|--1----------------------------------------------------------|

e|------------------------------|
B|------3-----------5h4-5-------|
G|--------4------5--5---5-------|
D|----5--------5----5---5-------|
A|-----------3------3-----------|
E|--3---------------------------|


Guitar 2: (Do Strumming) F--A--Bb--G-C-

e|--1----------5-----------6-----------3-------------|
B|--1----------5-----------6-----------3-----3-------|
G|--2----------6-----------7-----------4-----3-------|
D|--3----------7-----------8-----------5-----3-------|
A|--3----------7-----------8-----------5-----1-------|
E|--1----------5-----------6-----------3-------------|

Verse 2:

Guitar 1:F--A--Dm--Cm7--Bb--A-Dm-G--C--

e|--------------------------0-----------------1------------------------|
B|----------1-----------2-------2---------3-------3-----------4--------|
G|------2-------2-----2---2---2---2-----2---2---2---1-----3-------3----|
D|----3---3---3---3-------------------0-----------------5---5---5---5--|
A|------------------0---------------------------------3----------------|
E|--1------------------------------------------------------------------|

e|------------------0---0--1--1-------------------------------1--0--0------|
B|----------3-------2---2--3----3-----------0-------------1-1-1--1----3-1-1|
G|------3-------3---2---2--2------2------------------0-0------2--0---------|
D|----3---3---3---3-2---2--0------------3-------3--------2-----------------|
A|--1---------------0---0-------------2---2---2-----3----------------------|
E|----------------------------------3-------------1------------------------|

Guitar 2:(Do Strumming) F--A--Dm--Cm7--Bb--A-Dm-G--C--

e|-1-----5-----5-----3------------5--5---3----------------|
B|-1-----5-----6-----4-----3------5--6---3------5---------|
G|-2-----6-----7-----3-----3------6--7---4------5---------|
D|-3-----7-----7-----5-----3------7--7---5------5---------|
A|-3-----7-----5-----3-----1------7--5---5------3---------|
E|-1-----5------------------------5------3----------------|

Chorus 2:

Guitar 1: F--A--Bb--G--(2X)
[ Tab from: http://www.guitartabs.cc/tabs/p/penny_dai/ni_yao_de_ai_tab.html ]
e|--------------------------0---------------1-----------------------------|
B|----------1-----------2-------2-------3-------3h4h3-------------0-------|
G|------2-------2-----2---2---2---2---3---3---3-------3-------------------|
D|----3---3---3---3-------------------------------------3-----3-------3---|
A|------------------0---------------1-----------------------2---2---2-----|
E|--1-----------------------------------------------------3-------------1-|

e|------------------------------0-------------------1----------------------|
B|----------1---------------2-------2h3h2-------3-------3-----------0------|
G|------2-------2h3h2-----2---2---2-------2---3---3---3---3----------------|
D|----3---3---3-------3-----------------------------------------3-------3--|
A|----------------------0-------------------1-----------------2---2---2----|
E|--1-------------------------------------------------------3-------------1|

e|-------------------------------------------------------------|
B|----------0--------------------------------------------------|
G|-------------------------------------------------------------|
D|------3-------3----------------------------------------------|
A|----2---2---2---2--------------------------------------------|
E|--3----------------------------------------------------------|

Guitar 2: (Do Strumming) F--A--Bb--G--(2X)

e|--1--------5--------6---------3-------------------|
B|--1--------5--------6---------3-------------------|
G|--2--------6--------7---------4-------------------|
D|--3--------7--------8---------5-------------------|
A|--3--------7--------8---------5-------------------|
E|--1--------5--------6---------3-------------------|

Instrumental:

Guitar 1:  F--A--Dm--Cm7--F--A-Dm-G--Bbm--

e|-------------------------0-------------------------1-------|
B|---------1-----------2-------2---2h3h2---------3-------3---|
G|-----2-------2-----2---2---2---2-------2-----2---2---2---2-|
D|---3---3---3---3-------------------------2-0---------------|
A|-----------------0-----------------------------------------|
E|-1---------------------------------------------------------|

e|-------------1--------------0-1-3-0---0-1-1---------------------|
B|-----4-----1--------------3-------2---2-3---3-----------0-------|
G|---0------------------3-----------2---2-2-----2-----------------|
D|-1-----1-3------3---3---3---------2---2-0-----------3-------3---|
A|------------------1---------------0---0-----------2---2---2-----|
E|------------------------------------------------3-------------1-|

e|-----4-1-------------|
B|---------2-----------|
G|---3-------3---------|
D|-------------3-------|
A|-1-------------4-----|
E|---------------------|

Guitar 2: (Do Strumming) F--A--Dm--Cm7--F--A-Dm-G--Bbm--

e|-1------5------5------3------1-------5--5-----3-------6---|
B|-1------5------6------4------1-------5--6-----3-------6---|
G|-2------6------7------3------2-------6--7-----4-------6---|
D|-3------7------7------5------3-------7--7-----5-------8---|
A|-3------7------5------3------3-------7--5-----5-------8---|
E|-1------5--------------------1-------5--------3-------6---|


Chorus 3:

Guitar 1: F--A--Bb--G--
          F--A--Bb--G--Bbm--
e|-------------------------0-------------------1-----------------------|
B|---------1-----------2-------2h3h2-------3-------3-------------------|
G|-----2-------2-----2---2---2-------2---3---3---3---3-----------------|
D|---3---3---3---3-----------------------------------------3-----------|
A|-----------------0-------------------1-----------------2---2-2-3-4-5-|
E|-1---------------------------------------------------3---------------|

e|-------------------------0-------------------1----------------------|
B|---------1-----------2-------2h3h2-------3-------3-----------0------|
G|-----2-------2-----2---2---2-------2---3---3---3---3----------------|
D|---3---3---3---3-----------------------------------------3-------3--|
A|-----------------0-------------------1-----------------2---2---2----|
E|-1---------------------------------------------------3-------------3|

e|--3---1--------------------|
B|--2---2--------------------|
G|--3---3--------------------|
D|---------------------------|
A|--1---1--------------------|
E|---------------------------|

Guitar 2:(Do Strumming) F--A--Bb--G--
                        F--A--Bb--G--Bbm--
                        
e|--1------5------6------3-------1-------5-------6-------3------3--1--|
B|--1------5------6------3-------1-------5-------6-------3------2--2--|
G|--2------6------7------4-------2-------6-------7-------4------3--3--|
D|--3------7------8------5-------3-------7-------8-------5------------|
A|--3------7------8------5-------3-------7-------8-------5------1--1--|
E|--1------5------6------3-------1-------5-------6-------3------------|


Outro:

Guitar 1: F--A--Bb--G--
          F--A--Bb--G--
          F pause

e|-------------------------0-------------------1---------------------------|
B|---------1-----------2-------2h3h2-------3-------3--------0---3---0h1h0--|
G|-----2-------2-----2---2---2-------2---3---3---3---3----0---0---0-------0|
D|---3---3---3---3---------------------------------------------------------|
A|-----------------0-------------------1-----------------------------------|
E|-1----------------------------------------------------3------------------|

e|--------------------------0---------------1-------------------------1-|
B|----------1-----------2-------2-------3-------3--------0---3---0----1-|
G|------2-------2-----2---2---2---2---3---3---3---3----0---0---0---0--2-|
D|----3---3---3---3---------------------------------------------------3-|
A|------------------0---------------1---------------------------------3-|
E|--1------------------------------------------------3----------------1-|


________________________THAT"S IT HOPE YOU ALL ENJOY______________________
***************************************************************************

Ni Yao De Ai (The Love You Want) - Penny Dai

Sui ran jing chang meng jian ni 
Hai shi hao wu tou xu
Wai mian zheng zai xia zhe yu 
Jing tian shi xing qi ji
BUT I DON'T KNOW 
Ni qu na li

Sui ran bu ceng huai yi ni 
Hai shi tan te bu ding
Shui shi ni de na ge wei yi 
Yuan liang wo huai yi zi ji 

Wo ming bai Wo yao de ai 
Hui ba wo chong huai
Xiang yi ge xiao hai 
Zhi dong zai ni huai li huai
Ni yao de ai 
Bu zhi she yi lai
Yao xiang ge da nan hai 
Feng chui you ri sai 
Sheng huo zi you zi zai

Sui ran bu ceng huai yi ni 
Hai shi tan te bu ding
Shui shi ni de na ge wei yi 
Yuan liang wo huai yi zi ji 

Wo ming bai Wo yao de ai 
Hui ba wo chong huai
Xiang yi ge xiao hai 
Zhi dong zai ni huai li huai
Ni yao de ai 
Bu zhi she yi lai
Yao xiang ge da nan hai 
Feng chui you ri sai 
Sheng huo zi you zi zai

English:

Although I often dream of you
I still have no idea
It's raining outside
Which day is it today
But I don't know
Where you went

*Although I have never doubted you 
I still feel uneasy
Who is your one and only 
Forgive me for doubting myself 

~I understand The love I want 
Will spoil me
Like a little child 
Who only knows how to be bad in your arms
The love you want 
Is not just reliance
Must be like a man 
Even in bad weather 
Leads a carefree life

_________________________________________END________________________________
Comments