Penn Michael - This And That Chords & Tabs

 

This And That Chords & Tabs

Penn Michael Chords & Tabs

Version: 1 Type: Chords 0 ratings
1 star 2 stars 3 stars 4 stars 5 stars
comments

This And That Chords

   
This and That (Michael Penn)


Intro:

F	G	F	G	Em 


F                                  G		
    Well you cut me to the quick         with some kind of abandon


F                               G           Em
    And I'm pouring over every  word in my  mind



F                                  G	
    And it isn't making sense            it's just coming back at random


F                                   G           Em
    And I already forgot what I     expected to find


F                                  G	
    So maybe it's the wrong game          I shut down the replay


F                               G               Em
    Maybe it's a case of        hardness of     heart


F                                  G	
    But I'm down for the count            And there's got to be some way


F                               G               Em
    To clear out whatever       keeps us        apart



Chorus:

F               G               F           Am	
I'll do this,   I'll do that    I'll be     burning

Em
canyons for you.


F               G               F           Am	
I'll do this,   I'll do that    and I will  wait for

Dm                 G
ever if you'll     be there


F                                  G
    Now I haven't got a chance          there's no silver lining


F                               G               Em
    I'm far past the point of   doing what's    right


F                                  G
    I can still strike the match        that can start the mountains 

F                                   G           Em
shining	There might be something    new in that light



Chorus:

F               G               F           Am	
I'll do this,   I'll do that    I'll be     burning

Em
canyons for you.


F               G               F               Am
I'll do this,   I'll do that    but I can't     wait till

Dm              G
heaven I won't  be there



Instrumental: (x2)
[ Tab from: http://www.guitartabs.cc/tabs/p/penn_michael/this_and_that_crd.html ]
1st	F                       G		
2nd	F                       G                     Em
E   ---3--3--0------0-----------3--3--0-----0--8--8--7--5--3----
B   ------------3------------------------3----------------------
G   2-----------------------2-----------------------------------
D   ------------------------------------------------------------
A   ------------------------------------------------------------
E   ------------------------------------------------------------


Chorus:

F               G               F           Am	
I'll do this,   I'll do that    I'll be     burning

Em
canyons for you


F               G               F           Am	
I'll do this,   I'll do that    and I will  wait for

Dm              F               G
ever if you'll  be there


F               G               F           Am
I'll do this,   I'll do that    I'll be     burning 

Em
canyons for you


F               G               F               Am
I'll do this,   I'll do that    but I can't     wait till

Dm              G
heaven I won't  be there



Instrumental: 

(x3)
    F              G       F      Am       Em
E   ---3--3--0-----0-----------3--3--0-----0--8--8--7--5--3-----
B   ------------3-----------------------3-----------------------
G   2----------------------2------------------------------------
D   ------------------------------------------------------------
A   ------------------------------------------------------------
E   ------------------------------------------------------------

(x1)
    F              G        F       Am      Em
E   ---------0-----0--------------------------------------------
B   ---0--1-----3-----------------------------------------------
G   2-----------------------------------------------------------
D   ------------------------------------------------------------
A   ------------------------------------------------------------
E   ------------------------------------------------------------

(x1)
    F              G (I'll do this)   F   Am     Em
E   ---3--3-----------------------------------------------------
B   ------------------------------------------------------------
G   2-----------------------------------------------------------
D   ------------------------------------------------------------
A   ------------------------------------------------------------
E   ------------------------------------------------------------

(fading)		
F      G      F  Am  Em
--------


I'm just learning to play the guitar and I couldn't find this song anywhere 
so I decided to figure it out myself. I think it's fairly accurate, 
but comments are welcome.
Comments