Penguins - Earth Angel Chords & Tabs

 

Earth Angel Chords & Tabs

Penguins Chords & Tabs

Version: 2 Type: Bass Tab 0 ratings
1 star 2 stars 3 stars 4 stars 5 stars
comments

Earth Angel Bass Tab

G--------------------------------------------------------------
D--------------------------------------------------------------
A-3----------5--5------0---2-3-----------5--5-----0---2-3------
E---3-4-5--5------3-3-----------3-4-5--5------3-3--------------
[ Tab from: http://www.guitartabs.cc/tabs/p/penguins/earth_angel_btab_ver_2.html ]
G--------------------------------------------------------------
D--------------------------------------------------------------
A-3----------5--5------0---2-3-----------5--5-----0---2-3------
E---3-4-5--5------3-3-----------3-4-5--5------3-3--------------
[ Tab from: http://www.guitartabs.cc/tabs/p/penguins/earth_angel_btab_ver_2.html ]
G--------------------------------------------------------------
D--------------------------------------------------------------
A-3----------5--5------0---2-3-----------5--5-----0---2-3------
E---3-4-5--5------3-3-----------3-4-5--5------3-3--------------
[ Tab from: http://www.guitartabs.cc/tabs/p/penguins/earth_angel_btab_ver_2.html ]

Thats it over and over in a cycle	
Comments