Penfifteen Club - Hey Miss Hilton Chords & Tabs

 

Hey Miss Hilton Chords & Tabs

Penfifteen Club Chords & Tabs

Version: 2 Type: Tab 0 ratings
1 star 2 stars 3 stars 4 stars 5 stars
comments

Hey Miss Hilton Tab

   
                                 HEY, MS. HILTON
                       As recorded by The Penfifteen Club
                 (From the 2004 Album SIMPLE LIFE 2 SOUNDTRACK)

Words and Music by The Penfifteen Club
Arranged by The Penfifteen Club
Transcribed by Coolcatch

 Intro
  Q=156
  N.C.
 4/4
  Gtr I
|-12----15--17--|-20---20--19---|-12----15--17--|---------------|
|---------------|---------------|---------------|-13---13--15---|
|---------------|---------------|---------------|---------------|
|---------------|---------------|---------------|---------------|
|---------------|---------------|---------------|---------------|
|---------------|---------------|---------------|---------------|


|-12----15--17--|-20---20--19---|-17----15--17--|-19------------|
|---------------|---------------|---------------|------15--15---|
|---------------|---------------|---------------|---------------|
|---------------|---------------|---------------|---------------|
|---------------|---------------|---------------|---------------|
|---------------|---------------|---------------|---------------|


    N.C.              C5   C5  B5
    Gtr II
                                     4x
||------------------|----------------||
||o-----------------|---------------o||
||------------------|--5----5---4----||
||-----------5------|--5----5---4----||
||o--5h7---------7--|--3----3---2---o||
||-------0----------|----------------||
|
|   Gtr I
|                                    4x
||--12------15--17--|-20---20--19----||
||o-----------------|---------------o||
||------------------|----------------||
||------------------|----------------||
||o-----------------|---------------o||
||------------------|----------------||


   Verse
        E5          C5     B5      F#5          B5
                                3x
||----------------|-------------||------------|--------------|
||o---------------|------------o||------------|--------------|
||--x-x-9--x-x-9--|-5---5--4----||------------|-4----4--4----|
||--x-x-9--x-x-9--|-5---5--4----||-4----4--4--|-4----4--4----|
||o-x-x-7--x-x-7--|-3---3--2---o||-4----4--4--|-2----2--2/---|
||----------------|-------------||-2----2--2--|--------------|


   Chorus
    E5    G5      A5             F#5
                              3x
||--------------|-------------||---------------|--------------|
||o-------------|------------o||---------------|--------------|
||--------------|-------------||---------------|-4--4--4--4---|
||---2-----5----|--7-7--------||-4--4-4-4--4-4-|-4--4--4--4---|
||o-/2----/5----|-/7-7-------o||-4--4-4-4--4-4-|-2--2--2--2---|
||---0-----3----|--5-5--------||-2--2-2-2--2-2-|--------------|


 Interlude
  N.C.              C5       B5     N.C.                C5
|-----------------|---------------|-------------------|-----------------|
|-----------------|---------------|-------------------|-----------------|
|-----------------|--5----5---4---|-------------------|--5----5---4-----|
|----------5------|--5----5---4---|------------5------|--5----5---4-----|
|--5h7---------7--|--3----3---2---|--5h7-----------7--|--3----3---2-----|
|------0----------|---------------|------0------------|-----------------|
|
| Gtr I
|-12------15--17--|-20---20--19---|-12--------15--17--|-20---20--19-----|
|-----------------|---------------|-------------------|-----------------|
|-----------------|---------------|-------------------|-----------------|
|-----------------|---------------|-------------------|-----------------|
|-----------------|---------------|-------------------|-----------------|
|-----------------|---------------|-------------------|-----------------|
|
| Gtr III
|-----------------|---------------|-19-----15-----17--|-14---14--14h15--|
|-----------------|---------------|-------------------|-----------------|
|-----------------|---------------|-------------------|-----------------|
|-----------------|---------------|-------------------|-----------------|
|-----------------|---------------|-------------------|-----------------|
|-----------------|---------------|-------------------|-----------------|


 Verse2
        E5          C5         B5          E5          C5     B5
|-----------------|----------------||----------------|-------------||
|-----------------|----------------||o---------------|------------o||
|--x--x-9--x-x-9--|---5-----5--4---||--x-x-9--x-x-9--|-5---5--4----||
|--x--x-9--x-x-9--|---5-----5--4---||--x-x-9--x-x-9--|-5---5--4----||
|--x--x-7--x-x-7--|---3-----3--2---||o-x-x-7--x-x-7--|-3---3--2---o||
|-----------------|----------------||----------------|-------------||
|
| Gtr III
|-12\-------------|-(12)\----------||----------------|-------------||
|-----------------|----------------||o---------------|------------o||
|-----------------|----------------||----------------|-------------||
|-----------------|----------------||----------------|-------------||
|-----------------|----------------||o---------------|------------o||
|-----------------|----------------||----------------|-------------||


  F#5          B5
|------------|-------------|
|------------|-------------|
|------------|-4----4--4---|
|-4----4--4--|-4----4--4---|
|-4----4--4--|-2----2--2/--|
|-2----2--2--|-------------|


   Chorus
    E5    G5      A5             F#5             B5
                              3x
||--------------|-------------||---------------|--------------|
||o-------------|------------o||---------------|--------------|
||--------------|-------------||---------------|-4--4--4--4---|
||---2-----5----|--7-7--------||-4--4-4-4--4-4-|-4--4--4--4---|
||o-/2----/5----|-/7-7-------o||-4--4-4-4--4-4-|-2--2--2--2---|
||---0-----3----|--5-5--------||-2--2-2-2--2-2-|--------------|

[ Tab from: http://www.guitartabs.cc/tabs/p/penfifteen_club/hey_miss_hilton_tab_ver_2.html ]
 Breakdown
  N.C.               A5 G5A5 G5    N.C.               A5 G5
  Gtr II
         ~~~~                             ~~~~
|------------------|-------------|------------------|--------------|
|------------------|-------------|------------------|--------------|
|---0--------------|-------------|---0--------------|--------------|
|-2---2------------|-7-----------|-2---2------------|--------------|
|--------1b2=======|=7--5-7--5---|--------1b2=======|=7--5---------|
|---------------3r-|-5--3-5--3---|---------------3r-|-5--3-5b7r====|


  N.C.               A5 G5A5   G5    N.C.                    A5  G5A5  G5
         ~~~~                                  ~~~~
|------------------|---------------|-----------------------|------------------|
|------------------|---------------|-----------------------|------------------|
|---0--------------|---------------|----0------------------|------------------|
|-2---2------------|-7-------------|--2---2----------------|--7---------------|
|--------1b2=======|=7--5-7----5---|-----------1b2=========|==7--5--7S==5-----|
|---------------3r-|-5--3-5b7r=3---|--------------------3r-|--5--3--5S==3-----|
|
|                                    Gtr III
|------------------|---------------|-19-----15-------17----|-14----14--14h15--|
|------------------|---------------|-----------------------|------------------|
|------------------|---------------|-----------------------|------------------|
|------------------|---------------|-----------------------|------------------|
|------------------|---------------|-----------------------|------------------|
|------------------|---------------|-----------------------|------------------|


  N.C.                 A5     G5A5 G5    N.C.               A5 G5A5
           ~~~~                                 ~~~~             ~
|--------------------|-----------------|------------------|------------|
|--------------------|-----------------|------------------|------------|
|-----0--------------|-----------------|---0--------------|------------|
|--2----2------------|---7-------------|-2---2------------|-7----------|
|----------1b2=======|===7----5-7--5---|--------1b2=======|=7--5-7-----|
|-----------------3r-|---5----3-5--3---|---------------3r-|-5--3-5-----|
|
|-12\----------------|-(12)\-----------|------------------|------------|
|--------------------|-----------------|------------------|------------|
|--------------------|-----------------|------------------|------------|
|--------------------|-----------------|------------------|------------|
|--------------------|-----------------|------------------|------------|
|--------------------|-----------------|------------------|------------|


  N.C.               A5 G5A5 G5    F#5               B5
         ~~~~
|------------------|-------------|-----------------|-----------------|
|------------------|-------------|-----------------|-----------------|
|---0--------------|-------------|-----------------|-4-4-4-4-4-4-4-4-|
|-2---2------------|-7-----------|-4-4-4-4-4-4-4-4-|-4-4-4-4-4-4-4-4-|
|--------1b2=======|=7--5-7--5---|-4-4-4-4-4-4-4-4-|-2-2-2-2-2-2-2-2-|
|---------------3r-|-5--3-5--3---|-2-2-2-2-2-2-2-2-|-----------------|


 End Chorus
  E5                      G5                    A5
|----------|------------|-----------|---------|----------|--------|
|----------|------------|-----------|---------|----------|--------|
|----------|------------|-----------|---------|----------|--------|
|-2--------|-(2)--------|-5-5-------|---------|-7--------|-(7)----|
|-2--------|-(2)--------|-5-5-------|---------|-7--------|-(7)----|
|-0--------|-(0)--------|-3-3-------|---------|-5--------|-(5)----|


  F#5             B5              E5    G5      A5
                                                          3x
|---------------|-------------||--------------|-----------||
|---------------|-------------||o-------------|----------o||
|---------------|-4--4--4--4--||--------------|-----------||
|-4--4-4-4--4-4-|-4--4--4--4--||---2-----5----|--7-7------||
|-4--4-4-4--4-4-|-2--2--2--2--||o-/2----/5----|-/7-7-----o||
|-2--2-2-2--2-2-|-------------||---0-----3----|--5-5------||


                                 Outro
  F#5             B5              N.C.              C5   C5  B5
                                                                   3x
|---------------|-------------||------------------|----------------||
|---------------|-------------||o-----------------|---------------o||
|---------------|-4--4--4--4--||------------------|--5----5---4----||
|-4--4-4-4--4-4-|-4--4--4--4--||-----------5------|--5----5---4----||
|-4--4-4-4--4-4-|-2--2--2--2--||o--5h7---------7--|--3----3---2---o||
|-2--2-2-2--2-2-|-------------||-------0----------|----------------||
|
| Gtr I
|                                                                  3x
|---------------|-------------||--12------15--17--|-20---20--19----||
|---------------|-------------||o-----------------|---------------o||
|---------------|-------------||------------------|----------------||
|---------------|-------------||------------------|----------------||
|---------------|-------------||o-----------------|---------------o||
|---------------|-------------||------------------|----------------||


  N.C.
                     ~~~~~~~~~~~~~~~~~~~~~~
|-----------------|-------------------|---------------*|
|-----------------|-------------------|---------------*|
|-----------------|-------------------|---------------*|
|----------5------|-10----9---7--5--7-|---------------*|
|--5h7---------7--|-------------------|--7----(7)\----*|
|------0----------|-------------------|---------------*|
|
|-12------15--17--|-20---19--17-15-17-|-12------------*|
|-----------------|-------------------|---------------*|
|-----------------|-------------------|---------------*|
|-----------------|-------------------|---------------*|
|-----------------|-------------------|---------------*|
|-----------------|-------------------|---------------*|
Comments