Penfifteen Club - Hey Miss Hilton Chords & Tabs

 

Hey Miss Hilton Chords & Tabs

Penfifteen Club Chords & Tabs

Version: 1 Type: Bass Tab 0 ratings
1 star 2 stars 3 stars 4 stars 5 stars
comments

Hey Miss Hilton Bass Tab

   
                           HEY, MS. HILTON (Bassline)
                       As recorded by The Penfifteen Club
                 (From the 2004 Album SIMPLE LIFE 2 SOUNDTRACK)

Words and Music by The Penfifteen Club
Arranged by The Penfifteen Club
Transcribed by Coolcatch

 Intro
  Q=156
 4/4
  Gtr I
|-----|
|-----|
|-----|
|-----|


   Verse
   4/4
                               3x
||---------------|-------------||
||o--------5-----|------------o||
||o-5h7-------7--|-3---3--2---o||
||------0--------|-------------||


 Pre-Chorus
|-----------------|-----------------|
|-----------------|-----------------|
|-----------------|-2-2-2-2-2-2-2-2-|
|-2-2-2-2-2-2-2-2-|-----------------|


 Chorus
|-----------|-----------|-----------|
|-----------|-----------|-----------|
|-----------|-----------|-----------|
|-0----3----|-5-5-------|-0----3----|


|-------------|-----------|---------|
|-------------|-----------|---------|
|-------------|-----------|---------|
|-5-5---7/----|-0----3----|-5-5-----|


|-----------------|-----------------|
|-----------------|-----------------|
|-----------------|-2-2-2-2-2-2-2-2-|
|-2-2-2-2-2-2-2-2-|-----------------|


   Interlude/Verse
                               5x
||---------------|-------------||
||o--------5-----|------------o||
||o-5h7-------7--|-3---3--2---o||
||------0--------|-------------||


|-----------------|-----------------|
|-----------------|-----------------|
|-----------------|-2-2-2-2-2-2-2-2-|
|-2-2-2-2-2-2-2-2-|-----------------|


 Chorus
|-----------|-----------|-----------|
|-----------|-----------|-----------|
|-----------|-----------|-----------|
|-0----3----|-5-5-------|-0----3----|

[ Tab from: http://www.guitartabs.cc/tabs/p/penfifteen_club/hey_miss_hilton_btab.html ]
|-------------|-----------|---------|
|-------------|-----------|---------|
|-------------|-----------|---------|
|-5-5---7/----|-0----3----|-5-5-----|


|-----------------|-----------------|
|-----------------|-----------------|
|-----------------|-2-2-2-2-2-2-2-2-|
|-2-2-2-2-2-2-2-2-|-----------------|


 Breakdown
|-----|
|-----|
|-----|
|-----|


|-----------------|-----------------|
|-----------------|-----------------|
|-----------------|-2-2-2-2-2-2-2-2-|
|-2-2-2-2-2-2-2-2-|-----------------|


 End Chorus
|----------|------------|-----------|-----------|----------|--------|
|----------|------------|-----------|-----------|----------|--------|
|----------|------------|-----------|-----------|----------|--------|
|-0--------|-(0)--------|-3-3-------|-----7/----|-5--------|-(5)----|


|-----------------|-----------------|
|-----------------|-----------------|
|-----------------|-2-2-2-2-2-2-2-2-|
|-2-2-2-2-2-2-2-2-|-----------------|


|-----------|-----------|-----------|
|-----------|-----------|-----------|
|-----------|-----------|-----------|
|-0----3----|-5-5-------|-0----3----|


|---------------|-----------|---------|
|---------------|-----------|---------|
|---------------|-----------|---------|
|-5-5---7/--7/--|-0----3----|-5-5-----|


|-----------------|-----------------|
|-----------------|-----------------|
|-----------------|-2-2-2-2-2-2-2-2-|
|-2-2-2-2-2-2-2-2-|-----------------|


   Outro
                          B
                               3x
||---------------|-------------||
||o--------5-----|------------o||
||o-5h7-------7--|-3---3--2---o||
||------0--------|-------------||


|--------------|---------------|-------*|
|--------5-----|-10---9--7-5-7-|-------*|
|-5h7-------7--|---------------|-7-----*|
|-----0--------|---------------|-------*|
Comments