Pendulum - Propane Nightmares Chords & Tabs

 

Pendulum Chords & Tabs

Version: 2 Type: Bass Tab 0 ratings
1 star 2 stars 3 stars 4 stars 5 stars
comments

Propane Nightmares Bass Tab

Sweet song. pritty easy and fun to play. Some of the notes are played 
for longer. So play as many notes when each note is being plyed, cant 
fit in the space provided. any bumb notes comment please :D A.J

Normal Tuning

intro (0.22)
|---------------------------------------------|
|555555555------------------------------------| 
|----------55555555-66666666-11111111-55555555| x2
|---------------------------------------------|

|------------------------------------|----------------------------------|
|------------------------------------|----------------------------------|
|66666666-11111111-55555555----------|66666666-11111111-5555555555555555| x2
|---------------------------33333333-|----------------------------------|

Main Riff
|-----------------------------------------------------------------|
|-----------3-2-----------------------------3-2-------------------|
|--------------------------1-3-1----------------111111111-33333333| x2
|3-5-6--3-6-----3-5-6--3-6-------3-5-6--3-6-----------------------|

verse
|-----------------------|    |--------------------|
|-----------------------|    |--------------------|
|-----------------------| x3 |-111111111-33333333-| Both Riffs x2
|-3-3-3-3-3-3-3-3-1-1-1-|    |--------------------|

Chorus
|-------------------------------------|
|-------------------33333333----------|
|----------66666666----------33333333-| x3
|-33333333----------------------------|

|-------------------------------------|
|-------------------33333333-66666666-|
|----------66666666-------------------|
|-33333333----------------------------|
[ Tab from: http://www.guitartabs.cc/tabs/p/pendulum/propane_nightmares_btab_ver_2.html ]
Main Riff
|-----------------------------------------------------------------|
|-----------3-2-----------------------------3-2-------------------|
|--------------------------1-3-1----------------111111111-33333333| x2
|3-5-6--3-6-----3-5-6--3-6-------3-5-6--3-6-----------------------|

verse
|-----------------------|    |--------------------|
|-----------------------|    |--------------------|
|-----------------------| x3 |-111111111-33333333-| Both Riffs x2
|-3-3-3-3-3-3-3-3-1-1-1-|    |--------------------|

Chorus
|-------------------------------------|
|-------------------33333333----------|
|----------66666666----------33333333-| x3
|-33333333----------------------------|

|----------------------------------------|
|-------------------33333333-6666666--5~-|
|----------66666666----------------------|
|-33333333-------------------------------|
 
Brake : Bridge

interlude (3.40)
|------------------------------------|----------------------------------|
|------------------------------------|----------------------------------|
|66666666-11111111-55555555----------|66666666-11111111-5555555555555555| x2
|---------------------------33333333-|----------------------------------|

outro riff
|-------------------------------------|
|-------------------------------------|
|-------------------33333333-11111111-| x7
|-33333333-11111111-------------------|

|-------------------------------------|
|-------------------------------------|
|-------------------33333333333333333-|
|-33333333-11111111-------------------|

|-------------------------------------------------------------------|
|-----------3-2-----------------------------3-2---------------------|
|--------------------------1-3-1---------------------------1-3-1----| x2
|3-5-6--3-6-----3-5-6--3-6-------3-5-6--3-6-----3-5-6--3-6-------3~-|

And thats it. Have fun playing! anything that is wrong plaese comment
A.J ;)


Comments