Pendulum - Mutiny Chords & Tabs

 

Pendulum Chords & Tabs

Version: 1 Type: Tab 0 ratings
1 star 2 stars 3 stars 4 stars 5 stars
comments

Mutiny Tab

   
So this is my version of the guitar part to pendulums - Mutiny.
Working on the solo atm, its midnite so cant really be arsed but got the basic tune down.

Intro - listen to song to know when to come in and learn the rhythm, its pretty basic
E-----------------------------------------------------------|
B-----------------------------------------------------------|
G-----------------------------------------------------------|
D-----------------------------------------------------------|
A-----------------------------------------------------------|
D-6-6-6-6-6-8-9-9-9-9-9-6-6-8-9-9-9-9-8-9-11-11-11-11-11-11-|

E-------------------------------------|
B-------------------------------------| repeat until next riff
G-------------------------------------|
D-------------------------------------|
A-18   --14   --13   --17    ---------|
D-18 x6--14 x6--13 x6--17 x6 ---------|

Verse Riff - This is basically the same but with a different ending, i play this on top of
the synth riff as i think it works better when a synth plays it.  you dont have to play
anything at all.
[ Tab from: http://www.guitartabs.cc/tabs/p/pendulum/mutiny_tab.html ]
E-----------------------------------------------------------|
B-----------------------------------------------------------|
G-----------------------------------------------------------|
D-----------------------------------------------------------|
A-----------------------------------------------------------|
D-6-6-6-6-6-8-9-9-9-9-9-6-6-8-9-9-9-9-8-9-11-11-11-11-11-11-|

E-----------------------|
B-----------------------|    repeat this also to keep with the song, listen to
G-----------------------|    work out how many times and the rhythm
D-----------------------|
A-----------------------|
D-2-1--2-1--2-1--2-1----|

The intro is used again and the same with the verse.
Then the solo is played.  I shall put this up later as I have only just started mucking
around with it.  There are a few effects but you can play it as you like.

End riff

E-----------------------------------------------------|
B-----------------------------------------------------|
G-----------------------------------------------------|  repeat this till the
D-----------------------------------------------------|  end and end on a G#
A-------------6-6-7-6-4-------------------------------|  anywhere on the
D-6-6-6-9-9-9-----------9-8-6-6-6-9-9-9-1-1-2-1-2-5-1-|  fretboard

okay so thats basically it, there are probably a few mistakes due to the time but give 
a
shout and i will change them.  tell me what you think
thanks

Semper
Comments