Pendulum - Mutiny Chords & Tabs

 

Pendulum Chords & Tabs

Version: 2 Type: Bass Tab 0 ratings
1 star 2 stars 3 stars 4 stars 5 stars
comments

Mutiny Bass Tab

   
Yo! finally tabed this song out! Got help from the guitar tab.. but i 
think some of the hand movements on that tab are a bity wrong. Heres my
verison of it. Sorry if i miss anyhing out and note that some notes are
played for longer time. Please rate and comment :) A.J

Drop D Tuning
G|
D|
A|
D|

Main riff/Intro
|------------------------------------------------|
|------------------------------------------------|
|------------------------------------------------|
|-6-6-6-6-9-9--9-8-6-8-9--9-9-9-9-11-11-11-12-13-|

|----------------------------------------|
|----------------------------------------|
|----------------------------------------| 
|-6-6-8-8-9-9--14-14-13-13-13-13-8-8-8-8-|

|------------------------------------------------|
|------------------------------------------------|
|------------------------------------------------|
|-6-6-6-6-9-9--9-8-6-8-9--9-9-9-9-11-11-11-12-13-|

|------------------------------------|
|------------------------------------|
|------------------------------------| 
|-6-6-8-8-9-9--2-2-1-1-1-1-5-5-5-5-6-|

Verse
|----------------------------------------------------|
|----------------------------------------------------|
|----------------------------------------------------|
|-6p4h6-6-6-6--6p4h6-6-6-6--6p4h6-6-6-6--6p4h6-6-6-6-|

|------------------------------------------|
|------------------------------------------|
|------2--4-------2--4------2--4-------2-4-|
|-5-3--------5-3--------5-3-------3--5-----|

|----------------------------------------------------|
|----------------------------------------------------|
|----------------------------------------------------|
|-6p4h6-6-6-6--6p4h6-6-6-6--6p4h6-6-6-6--6p4h6-6-6-6-|

|------------------------------------------|
|------------------------------------------|
|------2--4-------2--4------2--4-------2-4-|
|-5-3--------5-3--------5-3-------3--5-----|

Interlude
|-------------------|
|-------------------|
|-------------------|
|-1-1-1-1-1-1-1-1-1-|

Main riff
|------------------------------------------------|
|------------------------------------------------|
|------------------------------------------------|
|-6-6-6-6-9-9--9-8-6-8-9--9-9-9-9-11-11-11-12-13-|

|----------------------------------------|
|----------------------------------------|
|----------------------------------------| 
|-6-6-8-8-9-9--14-14-13-13-13-13-8-8-8-8-|
[ Tab from: http://www.guitartabs.cc/tabs/p/pendulum/mutiny_btab_ver_2.html ]
|------------------------------------------------|
|------------------------------------------------|
|------------------------------------------------|
|-6-6-6-6-9-9--9-8-6-8-9--9-9-9-9-11-11-11-12-13-|

|------------------------------------|
|------------------------------------|
|------------------------------------| 
|-6-6-8-8-9-9--2-2-1-1-1-1-5-5-5-5-6-|

Verse
|----------------------------------------------------|
|----------------------------------------------------|
|----------------------------------------------------|
|-6p4h6-6-6-6--6p4h6-6-6-6--6p4h6-6-6-6--6p4h6-6-6-6-|

|------------------------------------------|
|------------------------------------------|
|------2--4-------2--4------2--4-------2-4-|
|-5-3--------5-3--------5-3-------3--5-----|

|----------------------------------------------------|
|----------------------------------------------------|
|----------------------------------------------------|
|-6p4h6-6-6-6--6p4h6-6-6-6--6p4h6-6-6-6--6p4h6-6-6-6-|

|------------------------------------------|
|------------------------------------------|
|------2--4-------2--4------2--4-------2-4-|
|-5-3--------5-3--------5-3-------3--5-----|

Interlude
|-------------------|
|-------------------|
|-------------------|
|-1-1-1-1-1-1-1-1-1-|

Main riff
|------------------------------------------------|
|------------------------------------------------|
|------------------------------------------------|
|-6-6-6-6-9-9--9-8-6-8-9--9-9-9-9-11-11-11-12-13-|

|----------------------------------------|
|----------------------------------------|
|----------------------------------------| 
|-6-6-8-8-9-9--14-14-13-13-13-13-8-8-8-8-|

|------------------------------------------------|
|------------------------------------------------|
|------------------------------------------------|
|-6-6-6-6-9-9--9-8-6-8-9--9-9-9-9-11-11-11-12-13-|

|------------------------------------|
|------------------------------------|
|------------------------------------| 
|-6-6-8-8-9-9--2-2-1-1-1-1-5-5-5-5-6-|

Guitar Solo
|----------------------------------|
|----------------------------------|
|----------------------------------| x4
|-2---2-0-2--2-0-2--2-0-2--5-5-5-5-|

Bridge
|--------------------|-----------------|
|--------------------|-----------------|
|--7--6--4-----------|-----------------| x2
|-----------9--8--6--|--2--1--2--5--1--|

Outro
|-------------------------------------|
|-------------------------------------|
|---------------6-6--7--6--4----------|
|-6-6-6--9-9-9----------------9--8--6-|

|----------------------------------|
|----------------------------------|
|----------------------------------| both riffs x8 till end 
|-6-6-6--9-9-9--1-1--2--1--2--5--1-|

and thats all! please rate and comment :D A.J

love peace and chicken grease X
Comments