Pendulum - Midnight Runner Chords & Tabs

 

Pendulum Chords & Tabs

Version: 1 Type: Bass Tab 0 ratings
1 star 2 stars 3 stars 4 stars 5 stars
comments

Midnight Runner Bass Tab

   
YO! heres an awesome pendulum song. its tuned to D so some of the notes were
to low for me to hear, thats why it took forever haha. butsorry if i missed
anything out :\ please comment before rating :)enjoy AJ :P

low D tuning
G|
D|
A|
D|

0:25     x10           x4
|-----------|-----------|------|
|-----------|--5-5--5-5-|------|
|-5-5--5-5--|-----------|--3-3-|
|-----------|-----------|------|

          x8                                    x4
|-----------|--------------------------------------|
|-----------|--------------------------------------|
|-5-5--1----|-5-5--5-5--3-3--3-3----------1-1--1-1-|
|---------5-|--------------------5-5--5-5----------|

            x2
|--------------|-------|
|--------------|-------|
|-------3-3--3-|--1----| x4
|-0--0---------|-----5-|

build up 
|-----------------------------------------------------|
|-----------------------------------------------------|
|-----------------------------------------------------|
|00000000000000000000000000000000000000000000000000000|
[ Tab from: http://www.guitartabs.cc/tabs/p/pendulum/midnight_runner_btab.html ]
main riff
|--------------------------|-----------------------|
|--------------------------|-----------------------|
|----5-5-------------------|----5-5----------------| x2
|-0------0--0--3-3--3--6-3-|-0------0--0--3-3--1-1-|

|---------------------|-------------------|
|---3-3---------------|---3-3-------------|
|---------------------|-------------------| x2
|-3-----3--6-6--6-8-6-|-3-----3--6-6--5-5-|

|----------------|
|----------------|
|----------------| x8
|-5-5-5-5-3--3-6-|

|--------------------------|-----------------------|
|--------------------------|-----------------------|
|----5-5-------------------|----5-5----------------| x2
|-0------0--0--3-3--3--6-3-|-0------0--0--3-3--1-1-|

|---------------------|-------------------|
|---3-3---------------|---3-3-------------|
|---------------------|-------------------| x2
|-3-----3--6-6--6-8-6-|-3-----3--6-6--5-5-|

|----------------|
|----------------|
|----------------| x8
|-5-5-5-5-3--3-6-|


outro          repeat
|-------------------|
|-------------------|        for that riff you can bend it, if you can 
|-------------------|        reach that tone. or you can slide up to the
|-(7-bend)--3~--0~--|        10th fret. 

|-----------------|-----------------|
|-----------------|-----------------|
|-----------------|------5----------| x2
|-0-0-0-0--3-3--5-|--0-0---0--3-3-5-| 

and the you just repeat those riffs till end :D
please comment and rate 

much love pease and chicken grease

AJ :P
Comments