Pendulum - Different Chords & Tabs

 

Pendulum Chords & Tabs

Version: 1 Type: Tab 0 ratings
1 star 2 stars 3 stars 4 stars 5 stars
comments

Different Tab

OK, These are the BASS, the GUITARE and the SYNTHESIZER tabs. At the end even the LYRICS.

SYNTHESIZER (part1):
e---------------------------------------------------------------------------|
h---------------------------------------------------------------------------|
G---------------------------------------------------------------------------|
D---------------------------------------------------------------------------|
A-5/7-7-7-7-7-7-7-7-7-----------------------------------------5-5-5-5/7-----|
E--------------------7-7-7-7-7-7-7-7-7-7-7-7-7-7-7-7-7-7-7-7----------------|

SYNTHESIZER (part2):
e-5/7----5-------------5----------------5/7-----5-------------5-------------|
h---------8-7-----7-8-------8-7-5----------------8-7-----7-8------8-7-5-----|
G---------------------------------------------------------------------------|
D---------------------------------------------------------------------------|
A---------------------------------------------------------------------------|
E---------------------------------------------------------------------------|

SYNTHESIZER (part3) (x3):
e---------------------------------------------------------------------------|
h---------------------------------------------------------------------------|
G---------------------------------------------------------------------------|
D---------------------------------------------------------------------------|
A----------7\5-----7\5-----7\5----------------------------------------------|
E---------------------------------------------------------------------------|

SYNTHESIZER (Solo) (x2):
e---------------------------------------------------------------------------|
h-5-8-7-5-------------------5-8-7-5-----------------------------------------|
G----------------------------------------------5-4--------------------------|
D------------5-7-5-----4-5-------------5-7-5--------------------------------|
A---------------------------------------------------------------------------|
E---------------------------------------------------------------------------|

GUITAR (part1) (x7):
e---------------------------------------------------------------------------|
h---------------------------------------------------------------------------|
G---------------------------------------------------------------------------|
D---------------------------------------------------------------------------|
A-5-7-7-7-5-7-7-7-5-7-7-7-5-0-0-0-------------------------------------------|
E---------------------------------------------------------------------------|

GUITAR (part2) (x8):
e-0--0--0--0--3--3--3--3----------------------------------------------------|
h-0--0--0--0--3--3--3--3----------------------------------------------------|
G-0--0--0--0--3--3--3--3----------------------------------------------------|
D-2--2--2--2--5--5--5--5----------------------------------------------------|
A-2--2--2--2--5--5--5--5----------------------------------------------------|
E-0--0--0--0--3--3--3--3----------------------------------------------------|

GUITAR (part3 (during Synthesizer part 2)) (x2):
e-0--0--0--0--0--0--0--0--7--7--7--7--7--7--7--7--5--5--5--5--5--5--5--5----|
h-0--0--0--0--0--0--0--0--7--7--7--7--7--7--7--7--5--5--5--5--5--5--5--5----|
G-0--0--0--0--0--0--0--0--7--7--7--7--7--7--7--7--7--7--7--7--7--7--7--7----|
D-2--2--2--2--2--2--2--2--9--9--9--9--9--9--9--9--7--7--7--7--7--7--7--7----|
A-2--2--2--2--2--2--2--2--9--9--9--9--9--9--9--9--5--5--5--5--5--5--5--5----|
E-0--0--0--0--0--0--0--0--7--7--7--7--7--7--7--7--x--x--x--x--x--x--x--x----|

e-5--5--5--5--5--5--5--5----------------------------------------------------|
h-5--5--5--5--5--5--5--5----------------------------------------------------|
G-5--5--5--5--5--5--5--5----------------------------------------------------|
D-7--7--7--7--7--7--7--7----------------------------------------------------|
A-7--7--7--7--7--7--7--7----------------------------------------------------|
E-5--5--5--5--5--5--5--5----------------------------------------------------|

GUITAR (part 4 (during "You´ve Been Perfect From The Start")) (x2):
e-7--7--7--7--7--7--7--7--6--6--6--6--6--6--6--6--8---8----8---8---8---8----|
h-7--7--7--7--7--7--7--7--6--6--6--6--6--6--6--6--8---8----8---8---8---8----|
G-9--9--9--9--9--9--9--9--8--8--8--8--8--8--8--8--8---8----8---8---8---8----|
D-9--9--9--9--9--9--9--9--8--8--8--8--8--8--8--8--10--10--10--10--10--10----|
A-7--7--7--7--7--7--7--7--6--6--6--6--6--6--6--6--10--10--10--10--10--10----|
E--------------------------------------------------8---8---8---8---8---8----|

e---8---8---7--7--7--7--7--7--7--7------------------------------------------|
h---8---8---7--7--7--7--7--7--7--7------------------------------------------|
G---8---8---7--7--7--7--7--7--7--7------------------------------------------|
D--10--10---9--9--9--9--9--9--9--9------------------------------------------|
A--10--10---9--9--9--9--9--9--9--9------------------------------------------|
E---8---8---7--7--7--7--7--7--7--7------------------------------------------|

GUITAR (part 5 (during SYNTHESIZER part3)) (x3):
e---------------------------------------------------------------------------|
h---------------------------------------------------------------------------|
G---------------------------------------------------------------------------|
D---------------------------------------------------------------------------|
A----7\5--7\5--7\5----------------------------------------------------------|
E---------------------------------------------------------------------------|
[ Tab from: http://www.guitartabs.cc/tabs/p/pendulum/different_tab.html ]
GUITAR (part 6 (during "We are going to a different place") (x2):
e----8-7------------------------8-7-----------------------------------------|
h--5-----5------0--5-5--------5-----5------0-0-8-7--------------------------|
G---------------------------------------------------------------------------|
D---------------------------------------------------------------------------|
A---------------------------------------------------------------------------|
E---------------------------------------------------------------------------|

GUITAR (part 7 (quite part (clean))):
e--5-----8---10--5--3-----3--2---------10-------10--------10--------10------|
h--5-----8---10--5--3-----3--2-------12-------10--------8---------7---------|
G--7----10---12--7--5-----5--4--9--12----7--10-----5--8------4--7-----------|
D--7----10---12--7--5-----5--4----------------------------------------------|
A--5-----8---10--5--3-----3--2----------------------------------------------|
E---------------------------------------------------------------------------|

e-------10------------10---------10--------10-------10----------10-------10-|
h-----10------------12----------12--------10--------8----------8--------7---|
G-7--10---------9--12-------9--12-----7--10-----5--8-------5--8-----4--7----|
D---------------------------------------------------------------------------|
A---------------------------------------------------------------------------|
E---------------------------------------------------------------------------|

e---------10-------10-------10------10--------------------------------------|
h-------12-------10-------8--------7----------------------------------------|
G--9--12----7--10----5--8------4--7-----------------------------------------|
D---------------------------------------------------------------------------|
A---------------------------------------------------------------------------|
E---------------------------------------------------------------------------|

GUITAR (part 8 (during SYNTHESIZER Solo)) (x2):
e-0-0-0-0-0-0-0-0-0-0-0-0-0-0-0-0--8--8--8--8--8--8--8--8-5-5-5-5-5-5-5-5---|
h-0-0-0-0-0-0-0-0-0-0-0-0-0-0-0-0--8--8--8--8--8--8--8--8-5-5-5-5-5-5-5-5---|
G-0-0-0-0-0-0-0-0-0-0-0-0-0-0-0-0--8--8--8--8--8--8--8--8-5-5-5-5-5-5-5-5---|
D-2-2-2-2-2-2-2-2-2-2-2-2-2-2-2-2-10-10-10-10-10-10-10-10-7-7-7-7-7-7-7-7---|
A-2-2-2-2-2-2-2-2-2-2-2-2-2-2-2-2-10-10-10-10-10-10-10-10-7-7-7-7-7-7-7-7---|
E-0-0-0-0-0-0-0-0-0-0-0-0-0-0-0-0--8--8--8--8--8--8--8--8-5-5-5-5-5-5-5-5---|

e-0-0-0-0-0-0-0-0-0-0-0-0-0-0-0-0--8--8--8--8--8--8--8--8-5-5-5-5-5-5-5-5---|
h-0-0-0-0-0-0-0-0-0-0-0-0-0-0-0-0--8--8--8--8--8--8--8--8-5-5-5-5-5-5-5-5---|
G-0-0-0-0-0-0-0-0-0-0-0-0-0-0-0-0--8--8--8--8--8--8--8--8-5-5-5-5-7-7-7-7---|
D-2-2-2-2-2-2-2-2-2-2-2-2-2-2-2-2-10-10-10-10-10-10-10-10-7-7-7-7-7-7-7-7---|
A-2-2-2-2-2-2-2-2-2-2-2-2-2-2-2-2-10-10-10-10-10-10-10-10-7-7-7-7-5-5-5-5---|
E-0-0-0-0-0-0-0-0-0-0-0-0-0-0-0-0--8--8--8--8--8--8--8--8-5-5-5-5-x-x-x-x---|

BASS (part 1 (from "We See the shadows..." until "Let them see your black heart BABY")):
G---------------------------------------------------------------------------|
D---------------------------------------------------------------------------|
A------------------------------------------------------------5--------------|
E-0-------0-------8-------5-------0-------0------8-------5------------------|

BASS (part 2 (GUITAR part 2)) (x8):
G---------------------------------------------------------------------------|
D---------------------------------------------------------------------------|
A---------------------------------------------------------------------------|
E-0-0-0-0-3-3-3-3-----------------------------------------------------------|

BASS (part 3 (SYNTHESIZER part 2)) (x2):
G---------------------------------------------------------------------------|
D---------------------------------------------------------------------------|
A---------------------------------5-5-5-5-5-5-5-5---------------------------|
E-0-0-0-0-0-0-0-0-7-7-7-7-7-7-7-7-----------------5-5-5-5-5-5-5-5-----------|

BASS (part 4 ("You´ve been perfect from the start)) (x2):
G---------------------------------------------------------------------------|
D---------------------------------------------------------------------------|
A-7-7-7-7-7-7-7-7-6-6-6-6-6-6-6-6-------------------------9-9-9-9-----------|
E---------------------------------8-8-8-8-8-8-8-8-7-7-7-7-------------------|

BASS (part 5 (SYNTHESIZER part 3)) (x3).
G---------------------------------------------------------------------------|
D---------------------------------------------------------------------------|
A---------------------------------------------------------------------------|
E-0---0---0-----------------------------------------------------------------|

BASS (part 6):
G---------------------------------------------------------------------------|
D---------------------------------------------------------------------------|
A---------------------------------------------------------------------------|
E-8--8--7--7--7-------------------------------------------------------------|

BASS (part "We Are Going To A Different Place" is the same as BASS part 1)
BASS (quite part is the same as BASS part 1)
BASS (SYNTHESIZER Solo is the same as BASS part 1)

LYRICS:
We see the shadows that are falling from your eyes,
Draining your face of everything but the disguis.
Dont hide baby, let them see your true colours.
Dont mind the cameras, let them see your black heart tonight.

DONT HIDE BABY, SHOW THEM JUST HOW DEEP IT GOES.
DONT MIND THE CAMERAS, LET THEM SEE YOUR BLACK HEART BABY:

You´ve been perfect from the start,
They told me that time has only done you wrong

We are going to a different place.
We take in everything we can.
Theres no expression left upon our face.
This time is running out so fast,
Its sinking in the sand.

You´ve been talking from the heart,
Saying that I can´t be away from life.

We are going to a different place.
We take in everything we can.
Theres no expression left upon our face.
This time is running out so fast,
Its sinking in the sand.

Its sinking in the sand.

Its sinking in the sand.

Thanks for seeing this :P pls rate. If there is a mistake or something u think is better 
an eMail to harveystemmler@online.de
Comments