Pendulum - Comprachicos Chords & Tabs

 

Pendulum Chords & Tabs

Version: 1 Type: Tab 0 ratings
1 star 2 stars 3 stars 4 stars 5 stars
comments

Comprachicos Tab

   
----------------------------------------------------------------------------
			     Comprachicos - Pendulum
----------------------------------------------------------------------------
Tabbed by: David / A.L.Monkey
Email: No1leedsfanjr@aol.com

Tuning: Standard

This is my first tab.:D

Some tips and alternatives at bottom of page

Intro: (0.01)
e|------------------------------------------|
B|------------------------------------------|
G|-----------------------------------7-7-7--|
D|----5-5-5-------5--------5-5-5-----7-7-7--|
A|----5-5-5-------5--------5-5-5-----5-5-5--|
E|----3-3-3-------3--------3-3-3------------|

e|------------------------------------------|      
B|------------------------------------------|
G|------------------------------------------|
D|----5-5-5-------5--------5-5-5------------|
A|----5-5-5-------5--------5-5-5------------|
E|----3-3-3-------3--------3-3-3------------|       X2


(0.24)
e|---------------------------------------------------------|
B|---------------------------------------------------------|
G|-------------------------------/12-12-12-12-12-12-12-12--|
D|----5-5-5-5-8-8-7-7---5-5--------------------------------|
A|----5-5-5-5-8-8-7-7---5-5--------------------------------|
E|----3-3-3-3-6-6-5-5---3-3--------------------------------| X4

(0.46)
e|---------------------------------|
B|---------------------------------|
G|---------------------------------| For 3rd and 4th chords use quick down  
D|---5~------5--------55~------5~--| and up stroke and let ring
A|---5~------5--------55~------5~--|
E|---3~------3--------33~------3~--|   See bottom of page for alternative

Signature Riff - (0.56)
e|-----------------------------------------------------------|
B|-----------------------------------------------------------|
G|--8-8-8-7-------6-6-------6-6-------6-6----8-8-8-7---------|
D|--8-8-8-7---5-5-6-6---5-5-6-6---5-5-6-6----8-8-8-7---------|   X2
A|--6-6-6-5---5-5-4-4---5-5-4-4---5-5-4-4----6-6-6-5---------|
E|------------3-3-------3-3-------3-3------------------------|

(1.08)
e|-------------------------------------------------------------------------|
B|-------------------------------------------------------------------------|
G|------7-7-------7-7-------7-7----8-8-8-7-------7-7--------7-7------------|
D|--5-5-7-7---5-5-7-7---5-5-7-7----8-8-8-7---5-5-7-7---5-5--7-7---5-5-5----|
A|--5-5-5-5---5-5-5-5---5-5-5-5----6-6-6-5---5-5-5-5---5-5--5-5---5-5-5----|
E|--3-3-------3-3-------3-3------------------3-3-------3-3--------3-3-3----|

e|-------------------------------------------------------------------------|
B|--5--------------5--------------5--------------5--------------5----------|
G|--5--------------5--------------5--------------5--------------5----------|
D|--5---5-5-5-5-5--5---5-5-5-5-5--5---5-5-5-5-5--5---5-5-5-5-5--5----------|
A|------5-5-5-5-5------5-5-5-5-5------5-5-5-5-5------5-5-5-5-5-------------|
E|------3-3-3-3-3------3-3-3-3-3------3-3-3-3-3------3-3-3-3-3-------------|


(1.28)"Throw it away 'cos I got the patience"
e|------------------------|                 e|-----------------------------|
B|------------------------|                 B|-----------------------------|
G|--6-6-8-/10-\6-10-------|                 G|--6-6-8-/10-\6-10-88888888---|
D|--6-6-8-/10-\6-10-------| X7 then on No 8 D|--6-6-8-/10-\6-10-88888888---|
A|--4-4-6-/8--\4-8--------|                 A|--4-4-6-/8--\4-8--66666666---|
E|------------------------|                 E|-----------------------------|

Signature Riff (1.53)
e|-----------------------------------------------------------|
B|-----------------------------------------------------------|
G|--8-8-8-7-------6-6-------6-6-------6-6----8-8-8-7---------|
D|--8-8-8-7---5-5-6-6---5-5-6-6---5-5-6-6----8-8-8-7---------|   X2
A|--6-6-6-5---5-5-4-4---5-5-4-4---5-5-4-4----6-6-6-5---------|
E|------------3-3-------3-3-------3-3------------------------|
[ Tab from: http://www.guitartabs.cc/tabs/p/pendulum/comprachicos_tab.html ]
Then:
e|-------------------------------------------------------------------------|
B|-------------------------------------------------------------------------|
G|------7-7-------7-7-------7-7----8-8-8-7-------7-7--------7-7------------|
D|--5-5-7-7---5-5-7-7---5-5-7-7----8-8-8-7---5-5-7-7---5-5--7-7---5-5-5----|
A|--5-5-5-5---5-5-5-5---5-5-5-5----6-6-6-5---5-5-5-5---5-5--5-5---5-5-5----|
E|--3-3-------3-3-------3-3------------------3-3-------3-3--------3-3-3----|

(2.14)
e|-------------------------------------------------------------------------|
B|--5--------------5--------------5--------------5--------------5----------|
G|--5--------------5--------------5--------------5--------------5----------|
D|--5---5-5-5-5-5--5---5-5-5-5-5--5---5-5-5-5-5--5---5-5-5-5-5--5----------|
A|------5-5-5-5-5------5-5-5-5-5------5-5-5-5-5------5-5-5-5-5-------------|
E|------3-3-3-3-3------3-3-3-3-3------3-3-3-3-3------3-3-3-3-3-------------|

(2.24) "Throw it away 'cos I got the patience"
e|------------------------|                 e|-----------------------------|
B|------------------------|                 B|-----------------------------|
G|--6-6-8-/10-\6-10-------|                 G|--6-6-8-/10-\6-10-8887~------|
D|--6-6-8-/10-\6-10-------| X7 then on No 8 D|--6-6-8-/10-\6-10-8887~------|
A|--4-4-6-/8--\4-8--------|:let ring at the A|--4-4-6-/8--\4-8--6665~------|
E|------------------------| end             E|-----------------------------|

(0.46)
e|----------------------|
B|----------------------|
G|----------------------|
D|-555555555555555555555|  Starting off almost at palm muting gradually get
A|-555555555555555555555|  louder and then proceed to signature riff
E|-333333333333333333333|

Signature Riff - (0.56)
e|-----------------------------------------------------------|
B|-----------------------------------------------------------|
G|--8-8-8-7-------6-6-------6-6--------------8-8-8-7---------|
D|--8-8-8-7---5-5-6-6---5-5-6-6---5-5--------8-8-8-7---------|   X2
A|--6-6-6-5---5-5-4-4---5-5-4-4---5-5--------6-6-6-5---------|
E|------------3-3-------3-3-------3-3------------------------|

(1.08)
e|-------------------------------------------------------------------------|
B|-------------------------------------------------------------------------|
G|------7-7-------7-7--------------8-8-8-7-------7-7-----------------------|
D|--5-5-7-7---5-5-7-7---5-5-5------8-8-8-7---5-5-7-7---5-5--------5-5-5----|
A|--5-5-5-5---5-5-5-5---5-5-5------6-6-6-5---5-5-5-5---5-5--------5-5-5----|
E|--3-3-------3-3-------3-3-3----------------3-3-------3-3--------3-3-3----|

(1.28)"Throw it away 'cos I got the patience"
e|------------------------|                 e|-----------------------------|
B|------------------------|                 B|-----------------------------|
G|--6-6-8-/10-\6-/10------|                 G|--6-6-8-/10-\6-/10-88888888--|
D|--6-6-8-/10-\6-/10------| X7 then on No 8 D|--6-6-8-/10-\6-/10-88888888--|
A|--4-4-6-/8--\4-/8-------|                 A|--4-4-6-/8--\4-/8--66666666--|
E|------------------------|                 E|-----------------------------|

Or:

(1.28)"Throw it away 'cos I got the patience"
e|------------------------|                 e|-----------------------------|
B|------------------------|                 B|-----------------------------|
G|--6-6-8-10-6-10---------|                 G|--6-6-8-10-6-10-88888888-----|
D|--6-6-8-10-6-10---------| X7 then on No 8 D|--6-6-8-10-6-10-88888888-----|
A|--4-4-6-8--4-8----------|                 A|--4-4-6-8--4-8--66666666-----|
E|------------------------|                 E|-----------------------------|

Same also goes for (2.24)

Thanks for viewing please rate!

************************************

| /   slide up
| \   slide down
| h   hammer-on
| p   pull-off
| ~   vibrato / let ring
| +   harmonic
| x   Mute note
| b   Bend
| pb  Pre-bend
| br  Bend release
| pbr Pre-bend release
| brb Bend release bend

************************************
Comments