Pendulum - Another Planet Chords & Tabs

 

Pendulum Chords & Tabs

Version: 1 Type: Tab 0 ratings
1 star 2 stars 3 stars 4 stars 5 stars
comments

Another Planet Tab

-------------------------------------------------------------------------------
			     Another Planet - Pendulum
-------------------------------------------------------------------------------
Tabbed by: Callum macdonald
Email: callummacdonald@blueyonder.co.uk

Tuning: standard

e|----------------------------------------------------12-11-----------------|
B|--9--8-----------------------------------------10-9------------9-9-10-10--|
G|--------9--8-------------6--6-6-7-----6-7------------------8-9------------|
D|--------------9--7-8-8-9-----------9-------7------------------------------|
A|--------------------------------------------------------------------------|
E|--------------------------------------------------------------------------|
[ Tab from: http://www.guitartabs.cc/tabs/p/pendulum/another_planet_tab.html ]
e|----9-------|--------------------------------------------|-----------|
B|-12---10--7-|--------------------------------------------|-----------|
G|------------|--------------------------------------------|-----------|
D|------------|------------------------------------444-----|-------1-4-|
A|------------|------2-1-2-1-2-555------------2222-----444-|----1-2----|
E|------------|--444---------------222----444--------------|-444-------| X 2

e|---------------|----------------------------------------------------------|
B|---------------|----------------------------------------------------------|
G|---------------|------------------------------------1---------------------|
D|--------1-4--6-|--------------------------1-1-0------1-1-2-1-0----1-1-0---|
A|-----1-2-------|---222----222----4-2------------2-4---------------------2-|
E|--444----------|444----444----222------44----------------------44---------|

e|------------|-------------------------------------------|
B|------------|-------------------------------------------|
G|------------|-------------------------------------------|
D|-------4--6-|-------------------------------------------|
A|-2-4-4------|-------------------------------------------|
E|------------|-4-5-6-7-8-9-10-11-12-13-14-15-16-17-18-19-|

 repeat each beat by about three times in the last bar as you slowly slide down the neck.

well thats it, all me i promise. all the guitar parts are there but i was to lazy to 
on repeating it.

thanks, enjoy and plz rate.

By Callum Macdonald
Comments