Pelvic Meatloaf - Step Back Chords & Tabs

 

Step Back Chords & Tabs

Pelvic Meatloaf Chords & Tabs

Version: 1 Type: Tab 0 ratings
1 star 2 stars 3 stars 4 stars 5 stars
comments

Step Back Tab

#----------------------------------PLEASE NOTE---------------------------------#
#This file is the author's own work and represents their interpretation of the #
#song. You may only use this file for private study, scholarship, or research. #
#------------------------------------------------------------------------------##
#

Date: Tue, 20 Aug 1996 14:12:41 +0000
From: Aaron Kulfan 
Subject: Pelvic Meatloaf

 Pelvic Meatloaf-Step Back


 P.M. on 6		    P.M. on all E5's           
|---------------------------------------|---------------------------------------|
|---------------------------------------|---------------------------------------|
|---------------------------------------|---------------------------------------|
|--3------3------3------3---------------|---------------------------------------|
|--1------1------1------1----2-22-2-2-2-|---2--2-22--2--2-2--2-2--2-2-2--2-2----|
|-----1------1-------1-------0-00-0-0-0-|---0--0-00--0--0-0--0-0--0-0-0--0-0----|
                                                                              
[ Tab from: http://www.guitartabs.cc/tabs/p/pelvic_meatloaf/step_back_tab.html ]
        A.H.    E5 E5, etc.        A.H.   P.M. on 6        let ring           
|---------------------------------------|---------------------------------------|
|---------------------------------------|---------------------------------------|
|--------7---------------------------5--|---------------------------------------|
|-/5---7---------%------------/5--7-----|---3-----3-----3-----------------------|
|---------------------------------------|---1-----1-----1---2-------------------|
|---------------------------------------|------1-----1------0-------------------|
                                                                              

P.M. on 6 
|---------------------------------------|---------------------------------------|
|---------------------------------------|---------------------------------------|
|-------9---8--------7--6-------5-4-----|---------------------------------------|
|-------9---6--------5--6-------5-4-----|------9---8--------7--6-------5--4-----|
|-------7---6--------5--4-------3-2-----|------9---6--------5--6-------5--4-----|
|--0-0--------0-0----------0-0----------|--0-0-7---6--0-0---5--4---0-0-3--2-----|
                                                                              
P.M. on E5      
|---------------------------------------|
|---------------------------------------|
|---------------------------------------|
|----------------------------------3----|
|---2--2-----2--2----2--2-----2--2-1----|
|---0--0-----0--0----0--0-----0--0------|

Standard Tuning
Step Back- Negative and The Key
Lobster Music
Transcription by Aaron Kulfan
©1996
                                       
--------------79D5E5CD19--


Comments