Pegazus - Apache Warrior Chords & Tabs

 

Apache Warrior Chords & Tabs

Pegazus Chords & Tabs

Version: 1 Type: Tab 0 ratings
1 star 2 stars 3 stars 4 stars 5 stars
comments

Apache Warrior Tab

 ______     ______			       ______     ______
   ____\ _ /____    -=v=- P E G A Z U S -=v=-    ____\ _ /____
     ___\V/___     A p a c h e   W a r r i o r     ___\V/___
       _/ \_    (off Nuclear Blast's compilation)    _/ \_

 All stuff transcribed/tabed by Gasper Fatur (metalizator@slomail.com)

 Tune guitars down for 1/2 step (6=Eb 5=Ab 4=Db 3=Gb 2=Bb 1=Eb).

 INTRO RIFF (play 4 times)
|-------------------------|-------------------------|
|-------------------------|-------------------------|
|-5p4p0-5p4p0-5p4p0-5p4p0-|-7p5p0-7p5p0-7p5p0-7p5p0-|
|-------------------------|-------------------------|
|-------------------------|-------------------------|
|-------------------------|-------------------------|

|-------------------------< <----------------------| <--------------|
|-------------------------< <----------------------| <--------------|
|-9p7p0-9p7p0-9p7p0-9p7p0-< <-10p9p0-10p9p0-10/12--| <-10-9-7-5-7-4-|
|-------------------------< <----------------------| <--------------|
|-------------------------< <----------------------| <--------------|
|-------------------------< <----------------------| <--------------|
                             \__first, third time__/  \2nd, 4th time/

 VERSE RIFF (play 4 times)
|-------------|-------------|-------------|-----------|
|-------------|-------------|-------------|-----------|
|-------------|-------------|-------------|-----------|
|-2-222-5-555-|-------------|-2-222-5-555-|-----------|
|-0-000-3-333-|-5-555-7-7\5-|-0-000-3-333-|-5-555-7-7-|
|-------------|-3-333-5-5\3-|-------------|-3-333-5-5-|

 BRIDGE RIFF (play 2 times)
|-------------|-------------|-------------|----------|
|-------------|-------------|-------------|----------|
|-------------|-------------|-------------|----------|
|-7-777-7-777-|-5-5--5------|-------------|----------|
|-5-555-5-555-|-3-3--3p0-5--|-5-555-5-555-|-5-7-5-7--|
|-------------|----------3--|-3-333-3-333-|-3-5-3-5--|

 VERSE RIFF (play 2 times)

 BRIDGE RIFF (play 2 times)

 CHORUS RIFF (play 2 times)
|--------------|-------------|--------------|------------|
|--------------|-------------|--------------|------------|
|--------------|-------------|--------------|-5-5--5-----|
|-7-777-7-777--|-5-5--5------|-7-777-7-777--|-3-3--3p0-5-|
|-5-555-5-555--|-3-3--3p0-5--|-5-555-5-555--|----------3-|
|--------------|----------3--|--------------|------------|

 VERSE RIFF (play 2 times)

 BRIDGE RIFF (play 2 times)

 CHORUS RIFF (play 2 times)

 INTRO RIFF (play 4 times)
[ Tab from: http://www.guitartabs.cc/tabs/p/pegazus/apache_warrior_tab.html ]
 SOLO RIFF (play 2 times) w/ SOLO
|--------------------------------|--------------------------------|
|--------------------------------|--------------------------------|
|--------------------------------|--------------------------------|
|-999-999-999-999-999-999-999-9--|--------------------------------|
|-777-777-777-777-777-777-777-7--|-999-999-999-999-999-999-999-9--|
|--------------------------------|-777-777-777-777-777-777-777-7--|

|--------------------------------|--------------------------------|
|--------------------------------|--------------------------------|
|--------------------------------|--------------------------------|
|-777-777-777-777-777-777-777-7--|--------------------------------|
|-555-555-555-555-555-555-555-5--|-777-777-777-777-777-777-777-7--|
|--------------------------------|-555-555-555-555-555-555-555-5--|

 SOLO (play 2 times) w/ SOLO RIFF
|--------------------------------------------------------|
|------9-10-9---------9-12-9---------9-10-9----9---------|
|-9-11--------11-9-11--------11-9-11--------11---11-9-9\-|
|--------------------------------------------------------|
|--------------------------------------------------------|
|--------------------------------------------------------|

|------------------------------------------------------|
|------------------------------------------------------|
|------8-9-8---------8-11-8---------8-9-8----8---------|
|-9-11-------11-9-11--------11-9-11-------11---11-9-9\-|
|------------------------------------------------------|
|------------------------------------------------------|

|-----------------------------------------------|
|-----7-8-7-------7-10-7-------7-8-7---7--------|
|-7-9-------9-7-9--------9-7-9-------9---9-7-7\-|
|-----------------------------------------------|
|-----------------------------------------------|
|-----------------------------------------------|

|-------------------------------< <----------------| <----------|
|-------------------------------< <----------------| <----tr----|
|-----6-7-6-------6-9-6-------6-< <-7-6---6--------| <-7-6-(7)--|
|-7-9-------9-7-9-------9-7-9---< <-----9---9-7-7\-| <----------|
|-------------------------------< <----------------| <----------|
|-------------------------------< <----------------| <----------|
                                   \__first time___/  \last time/

 VERSE RIFF (play 2 times)

 BRIDGE RIFF (play 2 times)

 CHORUS RIFF (play 2 times)

 VERSE RIFF (play 1.75 times)

 LAST 0.25
|----------|
|----------|
|----------|
|----------|
|-5-555-7\-|
|-3-333-5\-|

Visit MetalTabs.com for more metal tablatur
Comments