Pedro The Lion - Never Leave A Job Half Done Chords & Tabs

 

Never Leave A Job Half Done Chords & Tabs

Pedro The Lion Chords & Tabs

Version: 1 Type: Bass Tab 0 ratings
1 star 2 stars 3 stars 4 stars 5 stars
comments

Never Leave A Job Half Done Bass Tab

Pedro the Lion ---> Never Leave A Job Half Done
Tabbed for bass by Hunter (poroustourist@hotmail.com) May 4th, 2004

Guitar intro, bass tacet.

Verse:

G|-----------------|-----------------|-----------------|-----------------|  |
D|-0-0-0-0-0-0-0-0-|-2-2-2-2-4-4-4-4-|-5-5-5-5-5-5-5-5-|-5-5-5-5-5-5-5-5-|  |
A|-----------------|-----------------|-----------------|-----------------|  |
E|-----------------|-----------------|-----------------|-----------------|  |
                                                                            |
Blood stains on the carpet                                                  |
Drag her toward the kitchen (2x)                                            |
                                                                            | x2
G|-----------------|-----------------|-----------------|-----------------|  |
D|-0-0-0-0-0-0-0-0-|-2-2-2-2-4-4-4-4-|-----------------|-----------------|  |
A|-----------------|-----------------|-----------------|-----------------|  |
E|-----------------|-----------------|-3-3-3-3-3-3-3-3-|-3-3-3-3-3-3-3-3-|  |
                                                                            |
Blood stains on my hands                                                    |
Hide the evidence (2x)                                                      |

Transition:

G|-----------------|-----------------|-----------------|-----------------|
D|-----------------|-----------------|-----------------|-----------------|
A|-2-2-2-2-2-2-2-2-|-2-2-2-2-2-2-2-2-|-5-5-5-5-5-5-5-5-|-5-5-5-5-5-5-5-5-|
E|-----------------|-----------------|-----------------|-----------------|

G|-----------------|-----------------|-----------------|-----------------|
D|-----------------|-----------------|-----------------|-----------------|
A|-2-2-2-2-2-2-2-2-|-2-2-2-2-2-2-2-2-|-----------------|-----------------|
E|-----------------|-----------------|-3-3-3-3-3-3-3-3-|-3-3-3-3-3-3-3-3-|

Chorus:

G|-----------------|-----------------|-----------------|-----------------|
D|-----------------|-----------------|-----------------|-----------------|
A|-5-5-5-5-5-5-5-5-|-2-2-2-2-2-2-2-2-|-7-7-7-7-7-7-7-7-|-0-0-0-0-0-0-0-0-|
E|-----------------|-----------------|-----------------|-----------------|

Oh the toil a lie can bring

G|-----------------|-------------------------|-----------------|
D|-----------------|-------------------------|-----------------|
A|-7-7-7-7-7-7-7-7-|-10-10-10-10-10-10-10-10-|-2-2-2-2-2-2-2-2-|
E|-----------------|-------------------------|-----------------|

Quitters never know

G|-----------------|-----------------|-----------------|-----------------|
D|-----------------|-----------------|-----------------|-----------------|
A|-5-5-5-5-5-5-5-5-|-2-2-2-2-2-2-2-2-|-7-7-7-7-7-7-7-7-|-0-0-0-0-0-0-0-0-|
E|-----------------|-----------------|-----------------|-----------------|

Lies can be the perfect things

G|-----------------|-----------------|
D|-----------------|-----------------|
A|-7-7-7-7-7-7-7-7-|-10-10-10-10-----|
E|-----------------|-----------------|

If they never show

Guitar transition, bass tacet.

Verse:
[ Tab from: http://www.guitartabs.cc/tabs/p/pedro_the_lion/never_leave_a_job_half_done_btab.html ]
G|-----------------|-----------------|-----------------|-----------------|  |
D|-0-0-0-0-0-0-0-0-|-2-2-2-2-4-4-4-4-|-5-5-5-5-5-5-5-5-|-5-5-5-5-5-5-5-5-|  |
A|-----------------|-----------------|-----------------|-----------------|  |
E|-----------------|-----------------|-----------------|-----------------|  |
                                                                            |
Crisis posed a question                                                     |
Virtue in my veins reply, (2x)                                              |
                                                                            | x2
G|-----------------|-----------------|-----------------|-----------------|  |
D|-0-0-0-0-0-0-0-0-|-2-2-2-2-4-4-4-4-|-----------------|-----------------|  |
A|-----------------|-----------------|-----------------|-----------------|  |
E|-----------------|-----------------|-3-3-3-3-3-3-3-3-|-3-3-3-3-3-3-3-3-|  |
                                                                            |
Just beneath the skin                                                       |
"Quitters never win." (2x)                                                  |

Bridge:

G|-----------------|-----------------|-----------------|-----------------|
D|-----------------|-5-------0-------|-8---------------|-5-------0-------|
A|-1---------------|-----------------|-----------------|-----------------|
E|-----------------|-----------------|-----------------|-----------------|

                                  She almost ruined everything

G|-----------------|-----------------|-----------------|-----------------|
D|-8-8-8-8-8-8-8-8-|-8-8-8-8-8-8-8-8-|-5-5-5-5-5-5-5-5-|-0-0-0-0-0-0-0-0-|
A|-----------------|-----------------|-----------------|-----------------|
E|-----------------|-----------------|-----------------|-----------------|

G|-----------------|-----------------|
D|-----------------|-----------------|
A|-1-1-1-1-1-1-1-1-|-10--------------|
E|-----------------|-----------------|

Chorus:

G|-----------------|-----------------|-----------------|-----------------|
D|-----------------|-----------------|-----------------|-----------------|
A|-5-5-5-5-5-5-5-5-|-2-2-2-2-2-2-2-2-|-7-7-7-7-7-7-7-7-|-0-0-0-0-0-0-0-0-|
E|-----------------|-----------------|-----------------|-----------------|

Oh the toil a lie can bring

G|-----------------|-------------------------|-----------------|
D|-----------------|-------------------------|-----------------|
A|-7-7-7-7-7-7-7-7-|-10-10-10-10-10-10-10-10-|-2-2-2-2-2-2-2-2-|
E|-----------------|-------------------------|-----------------|

Quitters never know

G|-----------------|-----------------|-----------------|-----------------|
D|-----------------|-----------------|-----------------|-----------------|
A|-5-5-5-5-5-5-5-5-|-2-2-2-2-2-2-2-2-|-7-7-7-7-7-7-7-7-|-0-0-0-0-0-0-0-0-|
E|-----------------|-----------------|-----------------|-----------------|

Lies can be the perfect things

G|-----------------|-------------------------|
D|-----------------|-------------------------|
A|-7-7-7-7-7-7-7-7-|-10-10-10-10-10-10-10-10-|
E|-----------------|-------------------------|

If they never show

Coda:

G|-----------------|-----------------|-----------------|-----------------|  |
D|-----------------|-----------------|-----------------|-----------------|  |
A|-5-5-5-5-5-5-5-5-|-2-2-2-2-2-2-2-2-|-7-7-7-7-7-7-7-7-|-0-0-0-0-0-0-0-0-|  |
E|-----------------|-----------------|-----------------|-----------------|  |
                                                                            |
Ba bada ba ba baba, ba bada ba                                              |
                                                                            | x2
G|-----------------|-------------------------|                              |
D|-----------------|-------------------------|                              |
A|-7-7-7-7-7-7-7-7-|-12-12-12-12-12-12-12-12-|                              |
E|-----------------|-------------------------|                              |
                                                                            |
Ba bada ba ba                                                               |

G|-----------------|-----------------|-------------------------|---------|
D|-----------------|-----------------|-------------------------|---------|
A|-5-5-5-5-5-5-5-5-|-7-7-7-7-7-7-7-7-|-10-10-10-10-10-10-10-10-|-5-------|
E|-----------------|-----------------|-------------------------|---------|
Comments