Pedro The Lion - Lullaby Chords & Tabs

 

Lullaby Chords & Tabs

Pedro The Lion Chords & Tabs

Version: 1 Type: Tab 0 ratings
1 star 2 stars 3 stars 4 stars 5 stars
comments

Lullaby Tab

   
Song: Lullaby
Group: Pedro the Lion

note: Chorus is wrong and missing the bridge

INTRO
e------------|-----------|-----------------|---------------------
A------------|-----------|-----------------|---------------------
G---------0--|--------0--|-----------------|---------------------
D------2-----|-----2-----|--------2--3--2--|--------3--0--2--0---
A---3--------|--0--------|-----3-----------|-----3---------------
E------------|-----------|--1--------------|--1------------------
						     Repeat 2x



Verse                                                    Repeat 2x
||------------|-----------|-----------------|---------------------
||------------|-----------|-----------------|---------------------
||*--------0--|--------0--|-----------------|---------------------
||*-----2-----|-----2-----|--------2--3--2--|--------3--0--2--0---
||---3--------|--0--------|-----3-----------|-----3---------------
||------------|-----------|--1--------------|--1------------------
the sun shines|leaves blow|and my hope like autumn is turning brown
i know it seems like i am always falling down


|----------|-----------------|-----------|--------------------
|----------|-----------------|-----------|--------------------
|-------0--|-----------------|--------0--|--------------------
|----2-----|--------2--3--2--|-----2-----|--------3--0--2--0--
|-3--------|-----3-----------|--3--------|-----3--------------
|----------|--1--------------|-----------|--1-----------------
but it does not matter to me although it seems like it should
it's because i know i am understood when i hear him say

e-------------|
B-------------|
D-------------|
G----------2--|
B------0------|
E-3-----------|
 rest  in  me
[ Tab from: http://www.guitartabs.cc/tabs/p/pedro_the_lion/lullaby_tab.html ]
Chorus
B-3-3-3-3-3-3-3-3-3
   little david
E-3-3-3-3-3-3-3-3-3
and dry all your tears
E-12-12-12-12-12-12-12-12
you can lay down your armor
E-7-7-7-8-7-7-5-5
and have no fear
i'm always hear when your tired of running
i'm all the strength that you need


                                                   Repeat 2x
||------------|-----------|-----------------|---------------------
||------------|-----------|-----------------|---------------------
||*--------0--|--------0--|-----------------|---------------------
||*-----2-----|-----2-----|--------2--3--2--|--------3--0--2--0---
||---3--------|--0--------|-----3-----------|-----3---------------
||------------|-----------|--1--------------|--1------------------
its up hill both ways      tomorrow i swear i won't act this way
i know          it seems like that is what i always say

|----------|-----------------|-----------|--------------------
|----------|-----------------|-----------|--------------------
|-------0--|-----------------|--------0--|--------------------
|----2-----|--------2--3--2--|-----2-----|--------3--0--2--0--
|-3--------|-----3-----------|--3--------|-----3--------------
|----------|--1--------------|-----------|--1-----------------
but it does not matter to me although it seems like it should
it is because i know i am understood when i hear him say


CHORUS



Outro
|----------------|-----------------|-----------------|--------------------
|----------0--1--|-----------0--1--|-----------------|--------------------
|-------0--------|--------0--------|-----------------|--------------------
|----2-----------|-----2-----------|--------2--3--2--|--------3--0--2--0--
|-3--------------|--0--------------|-----3-----------|-----3--------------
|----------------|-----------------|--1--------------|--1-----------------

|----------------|-----------------|-----------------|--------------
|----------0--1--|-----------0--1--|-----------------|--------------
|-------0--------|--------0--------|-----------------|--------------
|----2-----------|-----2-----------|--------2--3--2--|--------2--3--
|-3--------------|--0--------------|-----3-----------|-----0--------
|----------------|-----------------|--1--------------|--3-----------
Comments